#1
Masterpiece of a song, I need someone to tab the solo as I'm not great at tabbing by ear.

I would appreciate if someone could make a tab.


Thanks.
#2
I tried, here you go


e|-----------17-15b17~-----------------17-15b17~----15b17---15b17~--------15b17r15p12--15b17~----17p15p12--19b20~----17------------|
B|--15b17-------------------15b17-17------------------------------------------------------------------------------------20-17----|
G|-------------------------------------------------------------------------------------------------------------------|
D|-------------------------------------------------------------------------------------------------------------------|
A|------------------------------------------------------------------------------------------------------------------|
E|------------------------------------------------------------------------------------------------------------------|

                                I believe the harmony is just 2 octaves lower                 slight harmonics
e|--20b22--20~----------20p19p17-19~-----20p19p17-19~----------------------------------------------------------------|
B|---------------------------------------------------------------------------------------------------------------------------|
G|------------------------------------------------------------------------------7b9r7p5-----5g7-4----7--5~-----|
D|--------------------------------------------------------------------------------------7---------7-------------|
A|--------------------------------------------------------------------------------------------------------------------------|
E|----------------------------------------------------------------------------------------------------------------------------|

                                   really fast____________________________
e|----------20b22-20-17h20p17--------------------------------------------------------------------------------|
B|--17-17---------------------20-17-20p17-20-17-----17-------------------------------------------------|
G|----------------------------------------------20-----20-19-17-19p17-19p17-19b21~--------|
D|----------------------------------------------------------------------------------------------------|
A|----------------------------------------------------------------------------------------------------|
E|----------------------------------------------------------------------------------------------------|

e|--------------------------------------------17-----19-----20-----20b22--20b22~--------------|
B|-------------20b22---20b22~------17-----17-----17-----17--------------------------------------|
G|--r19p17-------------------------------------------------------------------------|
D|---------------------------------------------------------------------------|
A|---------------------------------------------------------------------------|
E|---------------------------------------------------------------------------|