#1
Hey.

I was just listening to Burton's last solo before he was killed, and I really want to learn the part from the beginning to where he starts playing Anesthesia.

I tried to get some parts down, but didn't get really far. He appears to be playing in C Major scale (apologies if I am wrong, my music theory knowledge is limited).

https://www.youtube.com/watch?v=gTohiqB6qPQ - it starts from 0:20 and the part I need ends at ~ 2:30.

If anyone can help me out, it would be greatly appreciated, as I will probably need this for a local gig soon.

Thanks!
#3
Apologies for the terrible structure (uneven measures), probably best to ignore the bar lines, but hopefully this might get you started.

Sweeden (26.09.1986)
Edit: with help from Don Czarski (see posts below). (yes that is so much better).
Last edited by tonibet72 at Dec 24, 2014,
#4
TONIBET72

If you use the HTML at the beginning of your tab here and then at the end but with a / before the word code within the brackets
Last edited by DON CZARSKI at Dec 24, 2014,
#5

G||-(0)----------------------------7---|-2---(2)---2----2--------------------|
D||-(0)---------------------0----------|-0----0----0----0----0----0----15\---|
A||-(0)-----------[7]------------------|-------------------------------------|
E||-(x)--------------------------------|-------------------------------------|

G|-------------------------------------|-------------------------------------|
D|-0----0----0----0----0----0----19\---|-0----0----0----0----19---17---15\---|
A|-------------------------------------|-------------------------------------|
E|-------------------------------------|-------------------------------------| 

G|-------------------------------------|-------------------------------------|
D|-0----0----0----0----15---14---12\---|-0----0----0----0----12---10---------|
A|-------------------------------------|-------------------------------12\---|
E|-------------------------------------|-------------------------------------|


G|-------------------------------------|-------------------------------------|
D|-0----0----0----0------p--p--------0-|---p--p---------0-----p--p---------0-|
A|---------------------13-12-10--12\---|-13-12-10-13\-------13-12-10--12\----|
E|-------------------------------------|-------------------------------------|


G|-------------------------------------|-------------------------------------|
D|---p--sl--------0------p--p--------0-|---p--p---------0-----p--p---------0-|
A|-12-10-\-8-----------13-12-10--12\---|-13-12-10-13\-------13-12-10--12\----|
E|-----------10\-----------------------|-------------------------------------|


G|----------------------h-p-------h-p--|-----h--p--------h--p--------h-p-----|
D|---p--sl--------0----5-7-5--0--7-8-7-|-0--8-10-8--0--10-12-10--0--5-7-5--0-|
A|-12-10-\-8---------------------------|-------------------------------------|
E|-----------10\-----------------------|-------------------------------------|


G|--h-p-------h--p----------h--p-------|--h-h--h-------------------h-h-h-----|
D|-7-8-7--0--8-10-8---0---10-12-10--0--|-0-8-10-12---0-----------0--5-7-8----|
A|-------------------------------------|---------------8-10-12---------------|
E|-------------------------------------|-------------(h)h--h-----------------|


G|------------h-h--h-----h--h--h-------|h--h--h------h--h--h-----h--h--h-----|
D|-0---------0-8-10-12--0-10-12-14---0-|-12-14-15--0--14-15-17--0-15-17-19---|
A|---7-8-10----------------------------|-------------------------------------|
E|-(h)h-h------------------------------|-------------------------------------|


G|----------------------p--------------|-------------------------------------|
D|-x--19--0-------19--19-0-12-12-12-12-|-0--0--0--19-x-19--0--12-12-12-12----|
A|------------17-----------------------|-------------------------------------|
E|-------------------------------------|-------------------------------------|


G|-------------------------------------|-------------------------------------|
D|-0--0--0--0-/--19-\--12--x-/--19--\--|-12--x-/--19--\--12--x--12--/--19-19-|
A|-------------------------------------|-------------------------------------|
E|-------------------------------------|-------------------------------------|


G|---------------------------------p---|-----p--sl-------p--sl-------p--sl---|
D|-17-17-15--15-15-15--14-14-14--15-14-|---15-14\12----14-12\10----12-10-\(0)|
A|-------------------------------------|-------------------------------------|
E|-------------------------------------|-------------------------------------|


G|-------------------------------------|---sl--------p--p------p--p---sl-----|
D|-19-19--17-17-17--15-15-15--14-14-14-|-14/12-12--15-14-12--15-14-12-\-0-(0)|
A|-------------------------------------|-------------------------------------|
E|-------------------------------------|-------------------------------------|


G|---------h--h--p--p---------------sl-|-------------h--h--p--p-----sl-------|
D|-0-----12-14-15-14-12--14--14--15-\--|-0--0------12-14-15-14-12-12\--0-(0)-|
A|---15--------------------------------|-------15----------------------------|
E|-------------------------------------|-------------------------------------|


G|-------------------------------------|-------------------------------sl----|
D|-0-------12-14-15-14-12--14---15-\---|-0--0--------12-14-15-14-12--12\-(0)-|
A|----15-------------------------------|--------15---------------------------|
E|-------------------------------------|-------------------------------------|


G|-----------10--9-------9\------------|-10------9----\----------------------|
D|-0--0--12---------10----sl----0---0--|-7---7---7---7\---0--0--0----sl------|
A|-------------------------------------|--------------sl-----------10\--7--7-|
E|-------------------------------------|---------------------------7-\--5--5-|


G|------------------(0)-(0)------------|-------------------------------------|
D|-0--0----sl-sl----(5)-(5)-x-(0)-0----|--*---*-----------*-----sl-----------|
A|-------5-/8-\7------------x-(5)-5--5-|-[3]-[3]--*---*--[3]--3-/-5--5--x----|
E|-------3-/6-\5-----------------------|---------[5]-[5]---------------------|
........................................*[Tap Harmonic 12 frets above notes]*

G|-------------------------------------|-------------------------------------|
D|-------------------------------------|-------------------------------------|
A|-3--3-/-5--5--\--3--3--/-5--5--/--8--|-8--\--7--7--/--10--10--\--8--8--/---|
E|-------------------------------------|-------------------------------------|


G|-------------------------------------|-----------------------------p--p----|
D|-------------------------------------|---p---0--10--0--10-10--7--8--7--0---|
A|-12--12--\--10--10--/--13--13--\--12-|-12-0--------------------------------|
E|-------------------------------------|-------------------------------------|


G|----p----------------p--p----p-------|--p--------p--------p--------p-------|
D|-10--0--10--10--7--8--7--0--8-7------|-8-7------8-7------8-7------8-7------|
A|---------------------------------10--|------10-------10-------10-------10--|
E|-------------------------------------|-------------------------------------|


G|--p--------p------p------p------p----|--p------p------p------p------p------|
D|-8-7------8-7----8-7----8-7----8-7---|-8-7----8-7----8-7----8-7----8-7-----|
A|------10------10-----10-----10-----10|-----10-----10-----10-----10-----10--|
E|-------------------------------------|-------------------------------------|


G|---p-h-------------------------------|-------------------------------------||
D|-7--8-7---p-p-h-h--p-p-h-h--p-p--sl--|--h-p-p--sl-h-h--p-p-----------------||
A|--------10-8-7-8-10-8-7-8-10-8-7-\-5-|-7-8-7-5-/-7-8-10-8-7------------sl--||
E|-------------------------------------|----------------------10-B-(13)-8/10-||

(Star Spangled Banner....)
G|-------------------------------------|-------------------------------------|
D|-------------------------------------|-------------------------------------|
A|-------------------------------------|-------------------------------------|
E|-------------------------------------|-------------------------------------|

(Anesthesia....)
G|-------------------------------------|-------------------------------------|
D|-------------------------------------|-------------------------------------|
A|-------------------------------------|-------------------------------------|
E|-------------------------------------|-------------------------------------|
__________________
tonibet72
    	  
#7
Thanks Don!!

Yeah it has been a while, although it did look ok with my desktop format? (and I had forgotten about the ]CODE[ thingy), lesson learnt. Thanks Don, that was nice of ya mate!!
Last edited by tonibet72 at Dec 24, 2014,