#2
Instead of chords they sound beter played as notes the way I hear it on an IPAD


E ----------------------
B ----------------------
G --5-4---4h5p4-------
D ------7----------5-7--
A ----------------------
E ---------------------- 
Last edited by DON CZARSKI at Jan 12, 2015,
#3
Quote by DON CZARSKI
Instead of chords they sound beter played as notes the way I hear it on an IPAD


E ----------------------
B ----------------------
G --5-4---5-4---5-4-----
D ------7-----7---------
A ----------------------
E ----------------------



Thanks for the reply but.. this is the piano tabbing isn't it?
#5
Dm-E-Am

You wanna voice those higher than the Am else it's gonna sound silly (i.e. not default open chords)
#6
Quote by fanapathy
Dm-E-Am

You wanna voice those higher than the Am else it's gonna sound silly (i.e. not default open chords)


Thank you! I hope these are right, I can't really get them to sound similar though
#7
^Yeah, but sounds like they're just playing the 5ths no 3rds, try just powerchords for those then (xx023x-xx245x-x022xx or x577xx-x799xx-577xxx). If not that either, I'd say the problem is tone.