#1
Ben Harper and the Blind Boys Chords, I need..
The Song is "We're gonna make it to the church on time".
Here are the Bass chords, but I need the guitar chords, please help...
on ultimate guitar..


We're
gonna

00:10


D|5---------------5-----5-----4--|5---------------5--------------|
A|--------5---------------5------|--------5---------------0---2--|
E|-------------------------------|--------------------3----------|
make to the church time We're
it on gonna



D|-------------------------------|--------------------2---0------|
A|3---------------3-----x-----2--|3---3-----------------------2--|
E|--------3---------------3------|------------3------------------|
make it to the church time Put your
on on



D|5---------------5-----5-----5--|5---5---4---2-------2----------|
A|--------5---------------5------|------------------------2------|
E|-------------------------------|----------------------------3--|
Sunday best I'll on mine got to
put we've



D|-------------------------------|------------------------0---2--|
A|3-------3-------5-------5------|3---3---------------2----------|
E|-------------------------------|------------3------------------|
make to the church time We've to
it on got make

00:26


D|5---------------5-----5-----4--|5---------------5---5----------|
A|--------5---------------5------|--------5---------------0---2--|

it to the church time We're
on gonna



D|-------------------------------|--------------------2---0------|
A|3---------------3-----------2--|3-------3-------------------2--|
E|--------3-------------x-3------|----------------3--------------|
make it to the church time Need
on to



D|5---------------5-----5-----5--|5---5---4---2-------2----------|
A|--------5---------------5------|------------------------2------|
E|-------------------------------|----------------------------3--|
hear the preacher Give me a sign We got to



D|-------------------------------|------------------------0---2--|
A|3-------3-------5-------5------|3---3---------------2----------|
E|-------------------------------|------------3------------------|
make it to the church time We're make
on gonna

00:42


D|5---------------5-----------4--|5------------------------------|
A|--------5---------------5------|--------0-------1-------2------|

it to the church on time We got
to


D|-------------------------------|------------------------0---0--|
A|3---------------3-----------2--|3-------3-----------2----------|
E|--------3-------------x-3------|----------------3--------------|
make it to the church time I'm gonna
on


G|------- ------- ------- -------|------- ------- ------- -------|
D|5---------------5-----5-----4--|5---5---4---2-------2----------|
A|--------5---------------5------|------------------------2------|
E|-------------------------------|----------------------------3--|
get my my my soul line I've to
in got


D|-------------------------------|-------------------/2---0------|
A|3---------------5--------------|3---3-----------------------2--|
E|--------3---------------5------|------------3------------------|
make it to the church time ....
on

00:59
We're gonna make it to the church
We're gonna make it to the church on time
We're gonna leave all of our troubles behind
I've got to make it to the church on time

01:46

G|------- ------- ------- -------|------- ----2-- ------- -------|
D|----------------0-----2---0----|-------------------------------|
A|--------2-------------------2--|--------0-------1-------2---2--|
E|3------------------------------|3---3---------------3----------|
make Oh oh make it .... Oh
it

G|------- ------- ------2 -------|------- ------- ------- -------|
D|--------2-------5-----------5--|--------------------0---2---4--|
A|3------------------------------|3---3--------------------------|
E|-------------------------------|------------3------------------|
we're gonna make it ....


D|5---------------5--------------|5---4---3---2-------2----------|
A|--------5-------------5-5------|------------------------2------|
E|-------------------------------|----------------------------3--|


D|-------------------------------|------------------------0---2--|
A|3-------3-------5-------5------|3---3---------------2----------|
E|-------------------------------|------------3------------------|


02:02
Revelation chapter eight
Revelation chapter eight
Seven angels at the gate
You don't want to make them wait Oh

02:18
We got to make it
You know I'm gonna make it
I've got to make it
Oh I've got to make it to the church on time


02:34

D|5---------------5-----------4--|5---------------5-------5---7--|
A|--------5---------------5------|--------5-----------5----------|
E|-------------------------------|-------------------------------|
Oh to the church Oh to the
02:37


D|8---------------8--------------|8---------------8---8---7---6--|
A|--------8-------------8---8-8--|--------8----------------------|
E|-------------------------------|-------------------------------|
church on time ....


D|5---------------5--------------|5---------------5-------5---7--|
A|--------5-------------5---5-5--|--------5-----------5----------|


02:45

D|8---------------8--------------|8-------------------8---7---6--|
A|--------8-------------8/10--8--|--------8----------------------|
E|-------------------------------|-------------------------------|


D|----------------0-----2---0----|----------------0-----2---0----|
A|--------2-------------------2--|--------2-------------------2--|
E|3------------------------------|3------------------------------|

02:53

G|------- ------- ------0 ----3--|------- ------- ------- -------|
D|--------0-------3--------------|--------0-------3--------------|
A|1------------------------------|1-------------------1---0------|
E|-------------------------------|----------------------------4--|


G|------- ------- ------- ----0--|------- ------- ------- -------|
D|----------------0-----2---0----|----------------0--------------|
A|--------2----------------------|--------2-------------------0--|
E|3------------------------------|3---------------------3--------|

03:01

G|------- ------- ------- 0---3--|------- ------- ------- -------|
D|--------0-------3-----3--------|--------0-------3--------------|
A|1------------------------------|1-------------------1---0------|
E|-------------------------------|----------------------------4--|


D|-------------------------------|----------------0-----2---0----|
A|----------------5-----5---5-5--|--------2-------------------2--|
E|3-------3----------------------|3------------------------------|

03:09

G|------- ------- ------5 --3----|----5-- 6---7-- ------- -------|
D|--------0-------3--------------|--------------------8-\--------|
A|1------------------------------|-------------------------------|


G|------- ------- ------- -------|0---0-- ------- ------- -------|
D|----------------0-----2-----0--|--------3-------2-------0------|
A|--------2----------------------|-------------------------------|
E|3---3--------------------------|-------------------------------| ...
#2
Since this forum seems unable to take multiple blankspaces in a row i'll have to resort to putting the chords inside the lyrics.

We're go[G]nna make it to the chu[G]rch on time
We're gonna ma[C]ke it to the chu[C]rch on ti[G]me
Put [G]on your Sunday best
[G]I'll [F#]put [F]on [E]mine
We're gonna ma[C]ke it [D] to the chu[G]rch on time

Second half seems to be just moving between G and Bb.
Last edited by copperwreck at Feb 8, 2015,