#1
I could use some help figuring out the acoustic guitar that repeats throughout the song https://www.youtube.com/watch?v=yKZ9f2d9nWA

so far I've got this, not sure if it's all that accurate though.....


Stave 1 (played x2):

E| ---------------------
B| ---------------------
G| ------------2-------
D| --------0-----0---0
A| ------3---3-----3--
E| ---1----------------

Stave 2 (played x1):

E|---------------------
B|------------3-------
G|--------0-----0---0
D|------3---3-----3--
A|---1----------------
E|---------------------

Stave 3 (played x1)

E|-----------------------
B|-----------------------
G|--------0--------0---
D|------3---3---3---3-
A|---1--------1--------
E|----------------------

I think Stave 1 is 100 percent correct, not sure about 2 and 3 though
#2
Here's an update i think stave 3 might actually be this, let me know what you guys think

E|-----------------------
B|-----------------------
G|--------0--------0---
D|------3---3---3---3-
A|---1--------0--------
E|----------------------
#3
Here is what I get for these:

Stave 1 (played x2):

E| ----------------------
B| -----------------------
G| ------------2---------
D| --------0--------0---
A| ------3---3---3---3-
E| ---1------------------

Stave 2 (played x1):

E|-----------------------
B|--------------3--------
G|---------0-------------
D|------3----3---3-0-3-
A|---1-------------------
E|------------------------

Stave 3 (played x1)

E|------------------------
B|------------------------
G|------------------------
D|------3-0-3---3-0-3-
A|---1---------0---------
E|------------------------