#2
On a rudimentary level, I work out a basic 1&2-3-4 pattern over Bbm / Ab / F#maj7 ?? / Ab
Last edited by FauxTwenny at Feb 8, 2015,
#3
You're correct.

Capo on 1st fret
   Bbm                                Ab
e|-------0--------|--------0--------|-----------------|----------------|
B|---1-0----1-0-1-|----1-0----1-0-0-|-------3---------|-------3--------|
G|----------------|-----------------|-----------------|----------------|
D|----------------|-----------------|---5-------5---5-|---5------5---5-|
A|-0--------------|-0---------------|-----5-------5---|-----5------5---|
E|----------------|-----------------|-3---------------|-3--------------|

   Gbadd11                             Ab
e|-------0---------|-------0---------|-----------------|----------------|
B|----------0------|----------0------|-------3---------|-------3--------|
G|---2-----------2-|---2-----------0-|-----------------|----------------|
D|-----3------3----|-----3------3----|---5-------5---5-|---5------5---5-|
A|-----------------|-----------------|-----5-------5---|-----5------5---|
E|-1---------------|-1---------------|-3---------------|-3--------------|
i see your girl
G A Y
she leavin wit me

F O R
I'm playing wit her booty
in the back seat
M A D D E N