#1
XXX Can of This - Mad Capsule Markets https://www.youtube.com/watch?v=vYrTd2leygA

I know I have part of it, but I can't figure out the rest of it. I think the E might be tuned down, but I'm not sure.

Verse:
G|-----------------------------------------------------------------------
D|--------------------2-2-2-2-2-2-2-2-4-4-4-4-4-4-4-4----2?-4?----
A|-2-2-2-2-2-2-2-2----------------------------------------2?-------2?
E|------------------------------------------------------------------------

G|--------------------------------------------------------------------
D|--------------------2-2-2-2-2-2-2-2-4-4-4-4-4-4-4-4----2?----
A|-2-2-2-2-2-2-2-2----------------------------------------2?---2?-
E|---------------------------------------------------------------------

I'm pretty sure this is wrong but this is as close as I could get. The first note sounds lower than E but I just put it anyways.

Chorus:
G|-------------------------------------------------------------------------------
D|-------------------------------------------------------------------------------
A|--------------------------------------------------------------------------------
E|-0-0-0-0-0-0-0-0--4-4-4-4-4-4-4-4--0-0-0-0-0-0-0-0--2-2-2-2-2-2-2-2
#2
I hear that... he may be using his 5 string. Hrm. I'm going to play with GuitarPro and try to figure it out.