#1
https://www.youtube.com/watch?v=OgcDY-Ye50M

Where could I go but to the Lord,
Hello, Please help me, I can't read music, but I can read tab. I haven't been playing, but for only 3 yrs. I would really like this lick tabbed, or even to make it easy for me.. If you could help, thank you..

Where could I go but to the Lord, or you....
#2
hey heres the solos if you still need it, i uploaded it to UG too.

 

e|--b-------|-------10---p---------------------------|------------------------------|
B|-13-~~~~~-|--b-10----13-10--brp--------h-------p---|--brp--------h-----h---p------|
G|----------|-12-------------12--10----10-12---12-10-|-12--10----10-12-10-12--10----|
D|----------|-----------------------12---------------|--------12-----------------12-|
A|----------|----------------------------------------|------------------------------|
E|----------|----------------------------------------|------------------------------|

                                              b            
e|----------------------------|-------10--b--13~~~~~~~--13~~~~~-|-10-10--b-|
B|-----------------brp--------|--b-10----13---------------------|-------13-|
G|----10----10----12--10----s-|-12------------------------------|----------|
D|-12----12----12--------12-\-|---------------------------------|----------|
A|----------------------------|---------------------------------|----------|
E|----------------------------|---------------------------------|----------|


e|-------10---p-------------|-------------------------------------------------|
B|--b-10----13-10--brp------|---h-----h-----------h-----h-----------h---------|
G|-12-------------12--10----|-10-12-10-12-10----10-12-10-12-10----10-12-10----|
D|-----------------------12-|----------------12----------------12----------12-|
A|--------------------------|-------------------------------------------------|
E|--------------------------|-------------------------------------------------|


e|-------10---p----------------|--------------------------|----------------|
B|--b-10----13-10--brp---------|---------------h----------|----------------|
G|-12-------------12--10----10-|-----s---10--10-12-10---s-|-s------------s-|
D|-----------------------12----|-8-10\12--------------12\-|-\10-10-10-10-\-|
A|-----------------------------|--------------------------|----------------|
E|-----------------------------|--------------------------|----------------|

Last edited by ayreon77 at Mar 18, 2015,