#1
I have worked out this song until 05:30. From 05:30 on wards I believe the guitarist shreds on High 'e' and 'b' strings on frets 13 and 15. If possible can someone enlighten me on what is he doing in that little phrase from 05:30 on the song.

Cheers!
https://www.youtube.com/watch?v=v5LGNAVpw-o
#2


 a few more of these    then something like this for the rest of it
e|---p------p------p---|---p------13-|---p------13-|
B|-15-13--15-13--15-15-|-15-13-15----|-15-13-15----|
G|---------------------|-------------|-------------|
D|---------------------|-------------|-------------|
A|---------------------|-------------|-------------|and so on
E|---------------------|-------------|-------------|

good luck with it
#3
Quote by ayreon77


a few more of these then something like this for the rest of it
e|---p------p------p---|---p------13-|---p------13-|
B|-15-13--15-13--15-15-|-15-13-15----|-15-13-15----|
G|---------------------|-------------|-------------|
D|---------------------|-------------|-------------|
A|---------------------|-------------|-------------|and so on
E|---------------------|-------------|-------------|

good luck with it

Thanks a lot. This is the first song I am trying to play completely by ear but got stuck on this.
#5
Quote by ayreon77
if you have some software that can slow it down that may help you

Yes I actually use Transcribe. However, just had little trouble figuring out this one part.