#1


ok here,s the solo, it looks big but it fits the red line so don,t worry about that, i already checked

ok this will fit sorry for that

03:55
e|------|   |--------------------------|--------------------------|
B|------|   |---h--p--p----------------|---h--p--p---------20-~~~-|
G|-17~~-|   |-19-20-19-17----17--------|-19-20-19-17----17--------|
D|------|   |-------------20----17-~~~-|-------------20-----------|
A|------|   |--------------------------|--------------------------|
E|------|   |--------------------------|--------------------------|X5


03:37                                                                          
e|-18----------------|-18----------------|-18----------------|
B|----21-20-18-20----|----21-20-18-20----|----21-20-18-20----|
G|----------------20-|----------------20-|----------------20-|
D|-------------------|-------------------|-------------------|
A|-------------------|-------------------|-------------------|
E|-------------------|-------------------|-------------------|


e|-18-----------br---b------b------b----|
B|----21-20-18-20--16-~~~-16-~~~-16-~~~-|
G|--------------------------------------|
D|--------------------------------------|
A|--------------------------------------|
E|--------------------------------------|


e|----br---------br---------br---------br---------br-----------------------|
B|---15~~--13---15~~--13---15~~--13---15~~--13---15~~--13------13----------|
G|--x-----------------------------------------------------15---------------|
D|-x--------------------------------------------------------------15-~~~~~-|
A|-------------------------------------------------------------------------|
E|-------------------------------------------------------------------------|


e|----------------------------|
B|----13----------13----------|
G|-------15-~~~-------------s-|
D|-15----------------15-~~~-\-|
A|----------------------------|
E|----------------------------|


04:59   not sure what pedal he uses to get this high pitched sound
e|--------------------------------------------|------------brb-------------brb-------|
B|------------brb---------------b-------------|-s---16-18-18-~~~~~~~-18---18-~~~~~~~-|
G|-s---8-10--10--~~~~~~~--10---10-~~~~~~~~-10-|-\17----------------------------------|
D|-\10----------------------------------------|--------------------------------------|
A|--------------------------------------------|--------------------------------------|
E|--------------------------------------------|--------------------------------------|

Fast and awkard bit, some thing like this
     p                p                p
e|-18-15---p----b-|-18-15---p----b-|-18-15---p----b-|
B|-------18-16-18-|-------18-16-18-|-------18-16-18-|
G|----------------|----------------|----------------|
D|----------------|----------------|----------------|
A|----------------|----------------|----------------|
E|----------------|----------------|----------------|


e|-18---p----b-|-18---p----b-|-18---p----b-|-18---p----b--|
B|----18-16-18-|----18-16-18-|----18-16-18-|----18-16-18--|
G|----18-16-18-|----18-16-18-|----18-16-18-|----18-16-18--|
D|----18-16-18-|----18-16-18-|----18-16-18-|----18-16-18--|
A|----18-16-18-|----18-16-18-|----18-16-18-|----18-16-18--|
E|----18-16-18-|----18-16-18-|----18-16-18-|----18-16-18--|

           p             p             p             p             p             p    
e|--b-15-18-15-|--b-15-18-15-|--b-15-18-15-|--b-15-18-15-|--b-15-18-15-|--b-15-18-15-|
B|-18----------|-18----------|-18----------|-18----------|-18----------|-18----------|
G|-------------|-------------|-------------|-------------|-------------|-------------|
D|-------------|-------------|-------------|-------------|-------------|-------------|
A|-------------|-------------|-------------|-------------|-------------|-------------|
E|-------------|-------------|-------------|-------------|-------------|-------------|

    brb  r 
e|-18-~~~--15--b------|
B|------------18-~~~~-|
G|--------------------|
D|--------------------|
A|--------------------|
E|--------------------|

          brb p                 b        s
e|----18-18----15-------------18-~~~~~~~-\-|
B|-18-------------18-~~~~~-16--------------|
G|-----------------------------------------|
D|-----------------------------------------|
A|-----------------------------------------|
E|-----------------------------------------|
Last edited by ayreon77 at Mar 29, 2015,
#2
Could you try with these three song of black metal ? They sound easy and clear I think . They are in youtube. There are not tabs of this two bands.


Band : Naglfar

black_god_aftermath

Emerging from her Weepings


Band : Midwinter

Northen March