#1
Hey.

I have been looking everywhere for this tab, but i can't find a correct one. There are some weird ones, and also chords. but the picking pattern is so weird, and i have nowhere enough skill to tab this myself. But I think if I had a tab I could learn this. And I really would love to!

So please, if someone who can do it would be willing to take their time, I'd be really happy!

Here's an instrumental version (vocals muted) on youtube:
https://www.youtube.com/watch?v=UGRn3-H_VLc

Here's the full version on youtube:
https://www.youtube.com/watch?v=Udri48oGqZc

here are some tabs i found
http://www.guitartabsexplorer.com/madonna-tabs/intervention-tab.php
http://www.easyzic.com/partitions-tablatures/intervention,p48610.html

thanks!
#3
hey mate.

yes i have seen the chord version, however the song has some weird picking, i am not experienced at all. can you explain to me how to find out how to pick the chords? cus i know its not strumming.
#4
Ugh! I hate Madge, so don't go telling anyone at this forum that I posted this haha!!

But seriously...

I only added strums where necessary (extra notes being played).

Tuning: D Standard: D-G-C-F-A-d (Tune down 2 frets).
Note: E Standard: used here for easy navigation.

Left hand finger key: i=index, m=middle, r=ring, l=little

P.S: You can submit it as your own TAB if you like. (I certainly won't be haha!!)
(Submit about three *good* TABS and U-G will give you a special treat!)
I'm not going to say what it is, but you should like it, it's a reward for contributing to the site...

Madonna - Intervention

   1 & 2 & 3 & 4 & | 1 & 2 & 3 & 4 & | 1 & 2 & 3 & 4 & | 1 & 2 & 3 & 4 & |
e|---8-----8---8---|---12----10--10\-|---7-----7---7---|---8-----8-------|
B|sl---------------|sl-------------sl|----------------s|l----------------|
G|/9-----9---9---9-|/12----12--12-12\|(7)----7---7---7/|9------9-------7/|(9)
D|-----------------|-----------------|-----------------|-----------------|
A|-----------------|-----------------|-----------------|-----------------|
E|-----------------|-----------------|-----------------|-----------------|
 :                 :                 :                 :                 :         
 : 1 & 2 & 3 & 4 & : 1 & 2 & 3 & 4 & : 1 & 2 & 3 & 4 & : 1 & 2 & 3 & 4 & :
e|-----------------|-----------------|-----------------|---------0-------|
B|-1-------3-1---1-|-----1---3-1-----|---------------1-|-----1-----3-1---|
G|-----2-----------|-------0-------4-|-----4---5-4-----|-------2-------4-|
D|-----------------|-----------------|------(3)--------|-----------------|
A|-0-----0-0-0---3-|--------(3)------|---------------0-|-----------------|
E|-----------------|---------------3-|-----------3-----|-----------------|


   [color="Red"]i m i l   m i l   m l m r   i m i[/COLOR]
   1 & 2 & 3 & 4 & | 1 & 2 & 3 & 4 & | 1 & 2 & 3 & 4 & |  1   &  2  &  3  &  4  & 
e|---3-------------|---5---3---1-----|---1----------(0)|----------------------------|
B|-------5---3-----|---------------1-|-------3-------3-|sl----12------------------sl|
G|-----------------|-----------------|-----------2-----|/(12)-------14----12----12\-|
D|-2---2-------2-5-|-3---3-------3---|-0-----------0---|/-12-----12----------12---\-|
A|-----------------|-----------------|-----------------|----------------------------|
E|-----------------|-----------------|-----------------|----------------------------|
 :                 :                 :                 :                            :
 : 1 & 2 & 3 & 4 & : 1 & 2 & 3 & 4 & : 1 & 2 & 3 & 4 & :  1   &  2  &  3  &  4  &   :
e|(7)--------------|(5)--------------|-5---------------|----------------------------|
B|-8---------------|-6---------------|-6---------------|--12------------------------|
G|-9---------------|-5---------------|-7---------------|--12------------------------|
D|-9---------------|-7---------------|-7---------------|--12------------------------|
A|-7---------------|-8---------------|-5---------------|--10------------------------|
E|-----------------|-----------------|-----------------|----------------------------| 


   1 & 2 & 3 & 4 & | 1 & 2 & 3 & 4 & | 1 & 2 & 3 & 4 & | 1 & 2 & 3 & 4 & |
e|-0-------------0-|-3---------------|-3---------3-3-3-|-0---------------|
B|-1-------------3-|-1---------------|-3---------3-3-3-|-1---------------|
G|-2-------------2-|-0---------------|-0---------0-0-0-|-2---------------|
D|-2-------------2-|-2---------------|-0---------0-0-0-|-2---------------|
A|-0-------------0-|-3---------------|-2---------2-3-0-|-0---------------|
E|-----------------|-----------------|-3---------------|-----------------|


 | 1 & 2 & 3 & 4 & | 1 & 2 & 3 & 4 & | 1 & 2 & 3 & 4 & | 1 & 2 & 3 & 4 & |
e|(5)--------------|-----------------|-3---------------|-----------------|
B|-5---------5-----|-------5---------|-3---------------|-1---------------|
G|-5---------5-5---|-5-----5---5-5---|-0---------------|-2---------------|
D|-7---------7-7---|-5-----5---5-5---|-0---------------|-2---------------|
A|-7---------7-7-3-|-3-----3---3-3---|-2---------------|-0---------------|
E|-5---------5-5-3-|-3-----3---3---5-|-3---------------|-----------------|

      and as for the the little six note lead run at the end, 
   it walks down the A String. 14th fret, 12th... 10th, 8, 7, 5. 
   
Last edited by tonibet72 at Apr 10, 2015,
#5
Quote by tonibet72
Ugh! I hate Madge, so don't go telling anyone at this forum that I posted this haha!!


I love you!