#1
Hello there
I'm trying to write down tabs for this one:https://www.youtube.com/watch?v=cz21gHw6fQE
I'm interested in part 0:00-0:52 I managed to write some parts.
Capo 3rd fret
E---0-2-3/5\3------0--2-3--3/7-7--5
B-0------------0--0--------0---------5
G-------------------------------------6
D-------------------------------------7
A--------------------------------------
E---0----------------0----------------

E---------------------------3p2p0---7
B-------------------------------------8
G---------------------9~-------------9
D-------------10---------------------9
A---------10-----10-----------------7
E-----8--------------------------------

Can anyone help me to complete this, please?
Last edited by siwyssj2 at Apr 19, 2015,