#2
Chorus -
E||---------------------------------|
B||---------------------------------|
G||-5---5-5-5-5-5-5---5-5-5-5-5-5-5-|
D||-5---5-5-5-5-5-5---5-5-5-5-5-5-5-|
A||-3---3-3-3-3-3-3---3-3-3-3-3-3-3-|
E||---------------------------------|
-||-1 e & a 2 e & a 3 e & a 4 e & a-|


so strum on 1 &a2e&a e&a4e&a
although I think to be correct, it actually should be closer to
1 &a2e& 3 &a4e&
Chorus -
E||---------------------------------|
B||---------------------------------|
G||-5---5-5-5-5-4---5---5-5-5-5-x---|
D||-5---5-5-5-5-4---5---5-5-5-5-x---|
A||-3---3-3-3-3-2---3---3-3-3-3-x---|
E||---------------------------------|
-||-1 e & a 2 e & a 3 e & a 4 e & a-|


where x can be open or muted as your hand moves to the next position. the guitar part varies so doesn't have to be exactly that rhythm, the bend is more important
Last edited by dishbat at Oct 11, 2015,