#2
Here's what I've got. Not 100% accurate but in the right ballpark.
Chords for most of the song are Em, D and C
Riff:

 12/8
  S S S E S E S E S S S S E S Q.
|----------------------------------|
|----------------------------------|
|-4p2p0-------------4p2p0-----0----|
|-------2-0-0-2-2-0-------2-4------|
|----------------------------------|
|----------------------------------|


  S S S E S E S E S E S E S Q.
|--------------------------------|
|--------------------------------|
|-4p2p0--------------------------|
|-------2-0-0-2-2-0-5-5-4-0-2----|
|--------------------------------|
|--------------------------------|


   E     S  E  S  E  S  E  S  E  S  S  T  T  S  Q.
|----------12-14-12----------------------------------|
|-------12----------15-12----12-14-14h15p14p12-------|
|-14b16-------------------14-------------------14----|
|----------------------------------------------------|
|----------------------------------------------------|
|----------------------------------------------------|


   S  S  S  E  S  E  S  E  S  E  S  E  S  Q.
|----------------------------------------------|
|----------------------------------------------|
|-16p14p12-------------------12-12-11----------|
|----------14-12-12-14-14-12----------12-14----|
|----------------------------------------------|
|----------------------------------------------||