#1
Heya guys! Well I've just started learning the electric guitar for 6 months now, still pretty new! Well I need help with finding a riff from this song to play! Would appreciate if anyone could help me! Thankss!!

Link: Song

The riff begins at 3:47 and ends at 4:20.

Thanks so much!!
#2
OK here it is, Good Luck with it.


Bring this 
Note In
With Volume.                             s
e|--|--s-|--------------s-|----------17--\-|----20-17-----s-|-------17-----s-|
B|-15--\-|-15-15-17-18--\-|-18-20-18-------|----------20--\-|----20----18--\-|
G|-------|----------------|----------------|-17-------------|-17-------------|
D|-------|----------------|----------------|----------------|----------------|
A|-------|----------------|----------------|----------------|----------------|
E|-------|----------------|----------------|----------------|----------------|

                                               s
e|--br----------|--------------s-|----------17-\-|----20-17-----------s-|-------17-----s-|
B|-17---------s-|----17-18-15--\-|-18-20-18------|----------20-18-20--\-|----20----18--\-|
G|-----14-17--\-|-14-------------|---------------|-17-------------------|-17-------------|
D|--------------|----------------|---------------|----------------------|----------------|
A|--------------|----------------|---------------|----------------------|----------------|
E|--------------|----------------|---------------|----------------------|----------------|


e|--br----------s---|
B|-17--13----15-\13-|
G|--------14--------|
D|------------------|
A|------------------|
E|------------------|
Last edited by ayreon77 at Jun 9, 2015,
#3
Thanks ayreon77!! Means alot!

Just started out but unfortunately when I was trying out this riff I broke the E string!


QUOTE=ayreon77]OK here it is, Good Luck with it.


Bring this 
Note In
With Volume.                             s
e|--|--s-|--------------s-|----------17--\-|----20-17-----s-|-------17-----s-|
B|-15--\-|-15-15-17-18--\-|-18-20-18-------|----------20--\-|----20----18--\-|
G|-------|----------------|----------------|-17-------------|-17-------------|
D|-------|----------------|----------------|----------------|----------------|
A|-------|----------------|----------------|----------------|----------------|
E|-------|----------------|----------------|----------------|----------------|

                                               s
e|--br----------|--------------s-|----------17-\-|----20-17-----------s-|-------17-----s-|
B|-17---------s-|----17-18-15--\-|-18-20-18------|----------20-18-20--\-|----20----18--\-|
G|-----14-17--\-|-14-------------|---------------|-17-------------------|-17-------------|
D|--------------|----------------|---------------|----------------------|----------------|
A|--------------|----------------|---------------|----------------------|----------------|
E|--------------|----------------|---------------|----------------------|----------------|


e|--br----------s---|
B|-17--13----15-\13-|
G|--------14--------|
D|------------------|
A|------------------|
E|------------------|