#4
Yeah cool riff!!

Maybe this?
   Gtrs 1. 2.
: 1 3 4 5 6 : : 1 2 3 4 5 6 1 2 3 4 5 6 ::
e|-------------|---|-------------------------||
B|-------------|---|-------------------------||
G|-------------|-X-|-----6-----6-----6-------||
D|-----7-------|-3-|-------------------------||
A|-0-----0-5-0-|---|-----------------------8-||
E|-------------|---|-6-6---6-6---6-6---6-6---||


Gtrs 1. 2.
: 1 3 4 5 6 : : 1 2 3 4 5 6 1 4 5 6 ::
e|-------------|---|-------------------------||
B|-------------|---|-------------------------||
G|-------------|-X-|-----6-----6-------6-----||
D|-----7-------|-3-|---------------------8---||
A|-0-----0-5-0-|---|--------------sl-------8-||
E|-------------|---|-6-6---6-6---6/----------||


Gtr 1.
: 1 3 4 5 6 : : 1 2 3 4 5 6 1 2 3 4 5 6 ::
e|-------------|---|-------------------------||
B|-------------|---|-------------------------||
G|-------------|-X-|-----6-----6-----6-------||
D|-----7-------|-3-|-------------------------||
A|-0-----0-5-0-|---|-----------------------8-||
E|-------------|---|-6-6---6-6---6-6---6-6---||
: : : ::
: Gtr 2. : : ::
: 1 3 4 5 6 : : 1 2 3 4 5 6 1 2 3 4 5 6 ::
e|-------------|---|-------------------------||
B|-------------|---|----(2)---(2)---(2)------||
G|-----2-------|-X-|-3-----3-----3----(3)----||
D|-2-----------|-3-|-3---3-3---3-3---3-3---3-||
A|-0-----0-5-0-|---|-1-1---1-1---1-1---1-1---||
E|-------------|---|-------------------------||


Gtr 1.
: 1 3 4 5 6 : : 1 2 3 4 5 6 1 4 5 6 ::
e|-------------|---|-------------------------||
B|-------------|---|-------------------------||
G|-------------|-X-|-----6-----6-------6-----||
D|-----7-------|-3-|---------------------8---||
A|-0-----0-5-0-|---|--------------sl-------8-||
E|-------------|---|-6-6---6-6---6/----------||
: : : ::
: Gtr 2. : : ::
: 1 3 4 5 6 : : 1 2 3 4 5 6 1 4 5 6 ::
e|-------------|---|-------------------------||
B|-------------|---|-------------------------||
G|-----2-------|-X-|-3-3-3-3-3-3-3-----3---3-||
D|-2-----------|-3-|-3-3-3-3-3-3-3-------3---||
A|-0-----0-5-0-|---|-1-1-1-1-1-1-1-----------||
E|-------------|---|-------------------------||