#1
Had some empty time while travelling by bus, what better way to make the trip easier than to write some new music

Let me know what you think, any feedback is most welcome. And of course I will crit back any pieces you'd like me too.
Attachments:
Assault0.gpx
Assault0.gp5
#2
Quote by tritao
Had some empty time while travelling by bus, what better way to make the trip easier than to write some new music

Let me know what you think, any feedback is most welcome. And of course I will crit back any pieces you'd like me too.


I enjoyed it, any reason for the guitars being so low in the mix in the gp5? I cranked them and it sounded a lot better.

Only thing I would change other than that is the G# chord in bar 8, 44, and 48 - it seemed a bit out of place in the mix. I'd change it to an E.

I.E.


e|---------------------------------------------------------------|
B|---------------------------------------------------------------|
G|---------------------------------------------------------------|
D|---------6-----------------------------------------------------|
A|---------6-----------------------------------------------------|
E|---------------------------------------------------------------|

change to

e|---------------------------------------------------------------|
B|---------------------------------------------------------------|
G|---------------------------------------------------------------|
D|---------6-----------------------------------------------------|
A|---------7-----------------------------------------------------|
E|---------------------------------------------------------------|


Any chance of a C4C? https://www.ultimate-guitar.com/forum/showthread.php?t=1678850