#1
I'm in need of a little help working out this tab by watching video/ear.

https://www.youtube.com/watch?v=ZPA0qvHqT7c
Is the video I'm working off as it's the best one of her actually playing the song.

Judging by other tabs it's in an open D tuning D-A-D-F#-A-D

D
A-------0------0-------------0-----------0----------------0
F#-----0------0-------------0-----------0----------------0
D-------0------0-------------0-----------0----------------0 x(4) then goes to a
A----------9-----------9\7-------7\5----------------9----
D ----9---------------------7----------5----------------9---


D----------------------------------------------------------------------0
A-------0------0---------0--------0-------------0---------0---------0
F#-----0------0---------0--------0-------------0---------0---------0
D-------0------0---------0--------0-------------0--------0----------0
A---2-------2-------2---------2------------5--------5---------------5
D ----2-------2------2----------2-------------5--------5--------5


into

D
A------0---------0------------------0--------------0--------------0-----------0----0-------0------0
F# ----0---------0------------------0--------------0--------------0-----------0----0------0-------0
D------0---------0------------------0--------------0--------------0-----------0----0-------0------0
A-------------9-----------9/12--------------12--------12\5--------------5-----5------5------5
D ---9---------9----------------12-------------12-------------5------------5-----5------5------5


D
A------0-----0------------0----------0----------0----------0---------0------0
F#----0-----0------------0----------0----------0----------0---------0-------0
D------0-----0------------0----------0----------0----------0---------0-------0
A---9-----9-------12----------12----------5----------5---------5--------5
D----9-----9---------12----------12---------5---------5---------5---------5


D-----------------------------------------------------------------------0
A------0-----0------------0----------0----------0----------0---------0
F#----0-----0------------0----------0----------0----------0---------0
D------0-----0------------0----------0----------0----------0--------0
A---9-----9-------12----------12----------5----------5-------------5
D----9-----9---------12----------12---------5---------5-------5


this is all I've got at the minute but I'm not quite sure what her index finger is doing - I'm pretty sure some of those open strings are fretted.
Last edited by binaarycode at Jun 16, 2015,