#1
Hi,

Can someone help me tab out the intro of this song:

Its from 0 seconds to 12 seconds, just that bit.

And also, can someone explain what it means when you write the chord : Cm/G , do i play Cm with a downstroke and a G with an upstroke or ?

G Cm/G G
Trots att vi har sprungit tusen mil,


https://www.youtube.com/watch?v=OX20lSeoBcU
#2
Cm/G: just means play a Cm chord but put a G as the bass note.

the "/" can be thought of (in this situation) as "over"

so play C minor "over" a G bass note, or C minor "with" G in the bass.
here's one way:
e|--3----[color="Blue"]3[/COLOR]----3--|
b|--3----[color="Blue"]4[/COLOR]----3--|
g|--4----[color="Blue"]5[/COLOR]----4--|
d|--5----[color="Blue"]5[/COLOR]----5--|
a|--5----[color="Blue"]3[/COLOR]----5--|
E|--3----[B][color="Red"]3[/COLOR][/B]----3--|
G [color="Blue"]Cm[/COLOR]/[B][color="Red"]G[/COLOR] [/B] G


Here's what I come up with (there's quite a few ways you could play it), so I just tried to incorporate both lines of the melody:
note: the melody notes are the notes that are not in brackets ().
   1 & 2 & 3 & 4 & : 1 & 2 & 3 & 4 & : 1 & 2 & 3 & 4 & : 1 & 2 & 3 & 4 & : 
e|(3)--------------|-----------------|(x)--------------|-----------------|-
b|(3)-----[B]b[/B]-[B]r[/B]---(3)|--------(3)------|(0)----[B]0[/B]------(4)|(4)--------------|-
g|-[B]4[/B]-[B]4[/B]-[B]4[/B]-[B]4[/B]([B]5[/B])[B]4[/B]---[B]2[/B]-|------------(2)--|-[B]0[/B]-[B]0[/B]-[B]0[/B]-----[B]0[/B]--(4)|----(4)----------|-
d|(5)-----------(4)|-----------------|(2)------------[B]4[/B]-|-----------------|-
a|-[B]5[/B]-[B]5[/B]-[B]5[/B]-[B]5[/B]-------[B]5[/B]-|-----------------|(2)----[B]2[/B]------(2)|-----------------|-
E|(3)--------------|-----------------|-[B]3[/B]-[B]3[/B]-[B]3[/B]-----[B]3[/B]---[B]2[/B]-|-----------------|-
G D Em B
1 2 3 4 : 1 2 3 4 :
e|-----------------|-----------------|-
b|-[B]5[/B]-------[B]3[/B]-------|(1)------[B]3[/B]-------|-
g|(5)-----(4)------|-[B]2[/B]------(2)------|-
d|-[B]2[/B]-------[B]0[/B]-------|(2)------[B]0[/B]-------|-
a|(3)-----(2)------|-[B]0[/B]---------------|-
E|-----------------|-----------------|-
C G Am D
Last edited by tonibet72 at Jul 1, 2015,
#3
Quote by tonibet72
Cm/G: just means play a Cm chord but put a G as the bass note.

the "/" can be thought of (in this situation) as "over"

so play C minor "over" a G bass note, or C minor "with" G in the bass.
here's one way:
e|--3----[color="Blue"]3[/COLOR]----3--|
b|--3----[color="Blue"]4[/COLOR]----3--|
g|--4----[color="Blue"]5[/COLOR]----4--|
d|--5----[color="Blue"]5[/COLOR]----5--|
a|--5----[color="Blue"]3[/COLOR]----5--|
E|--3----[B][color="Red"]3[/COLOR][/B]----3--|
G [color="Blue"]Cm[/COLOR]/[B][color="Red"]G[/COLOR] [/B] G


Here's what I come up with (there's quite a few ways you could play it), so I just tried to incorporate both lines of the melody:
note: the melody notes are the notes that are not in brackets ().
   1 & 2 & 3 & 4 & : 1 & 2 & 3 & 4 & : 1 & 2 & 3 & 4 & : 1 & 2 & 3 & 4 & : 
e|(3)--------------|-----------------|(x)--------------|-----------------|-
b|(3)-----[B]b[/B]-[B]r[/B]---(3)|--------(3)------|(0)----[B]0[/B]------(4)|(4)--------------|-
g|-[B]4[/B]-[B]4[/B]-[B]4[/B]-[B]4[/B]([B]5[/B])[B]4[/B]---[B]2[/B]-|------------(2)--|-[B]0[/B]-[B]0[/B]-[B]0[/B]-----[B]0[/B]--(4)|----(4)----------|-
d|(5)-----------(4)|-----------------|(2)------------[B]4[/B]-|-----------------|-
a|-[B]5[/B]-[B]5[/B]-[B]5[/B]-[B]5[/B]-------[B]5[/B]-|-----------------|(2)----[B]2[/B]------(2)|-----------------|-
E|(3)--------------|-----------------|-[B]3[/B]-[B]3[/B]-[B]3[/B]-----[B]3[/B]---[B]2[/B]-|-----------------|-
G D Em B
1 2 3 4 : 1 2 3 4 :
e|-----------------|-----------------|-
b|-[B]5[/B]-------[B]3[/B]-------|(1)------[B]3[/B]-------|-
g|(5)-----(4)------|-[B]2[/B]------(2)------|-
d|-[B]2[/B]-------[B]0[/B]-------|(2)------[B]0[/B]-------|-
a|(3)-----(2)------|-[B]0[/B]---------------|-
E|-----------------|-----------------|-
C G Am D


Much thanks ! ! Will try it out when i come home
#4
Re' your P.M: Here's what I got... Great Song BTW!!

note:you'll have to tune your guitar accordingly.
My versions in the key of G, just made everything easier;
You could use a capo on the 3rd fret and play everything in the tab 3 frets higher.
or just rewrite the tab with all notes 3 frets higher,
but I guess you can do that if you want.

www.youtube.com/watch?v=EnewZrOKxFo

                                               "Där borta vid pilen...
e|-[B]0[/B]--[B]0[/B]--[B]2[/B]-(3)-3-----------------------------|------------------------------------------------|-
B|-1--1-----[B]3[/B]--[B]3[/B]--[B]1[/B]--[B]0[/B]--------3-----h-p---3--|-----sl-p--p----[B]0[/B]-----0--0--0--1---h-p------(0)-|-
G|-2--2-----4--4--2-----[B]2[/B]--[B]0[/B]--[B]0[/B]----[B]0[/B]-[B]2[/B]-[B]0[/B]--2--|-----/[B]4[/B]--[B]2[/B]--[B]0[/B]---0-[B]0[/B]---0--0--0--0--[B]0[/B]-[B]2[/B]-[B]0[/B]-----(0)-|-
D|-2--2-----4--4--2-----2-----4-----------[B]4[/B]--|--[B]0[/B]-------------0-----0--0--0--2---------[B]2[/B]--([B]0[/B])-|-
A|-3--------5--5--0-----0-----5----------(0)-|-------------------------------3------------(2)-|-
E|---------(3)-------------------------------|----------------3-----3---------------------(3)-|-
   [color="Red"]Cadd6[/COLOR]   Gmaj7  Am          Dsus4       D                   G              C            (G) 


                                      <1st--time>  
e|---------------------------------------3-----2-|~ 
B|-(0)--0----0------------1--3--0-----3--3-----3-|~ 
G|-(0)--0----0--[B]0[/B]--[B]0[/B]-[B]0[/B]----0--2--[B]0[/B]-[B]2[/B]-[B]4[/B]-[B]2[/B]--2-----2-|~ 
D|-([B]0[/B])--0----0----(0)--[B]4[/B]--[B]2[/B]--[B]4[/B]--0-----0--0-(2)-0-|~ 
A|-(2)-------2------------3--5-------(0)---------|~ 
E|-(3)----3-------(3)-----------3----------------|~ 
   (G)                    C  D  G     D


"...Av den som förstod mig..."
e|-----------------------|-
B|-----------------[B]0[/B]-----|-
G|-----/[B]4[/B]--[B]2[/B]---[B]0[/B]---0---[B]0[/B]-|- blah 
D|--[B]0[/B]--------------0-----|- blah...
A|-----------------------|-
E|-----------------3-----|-
                   G


                 <-----2nd---time----->
..."fanns jag ej där..." 
               ~|--------------------2-|-
               ~|-3---------3--3-------|-
               ~|-2------2-----2-------|-
               ~|(5)--5--------4-(4)---|-
               ~|(5)----------(5)------|-
               ~|----------------------|-
                  Dsus4        D


..."Jag önskar jag stannat"...                                                       "...och min far 
e|------[B]0[/B]--[B]0[/B]--------------------0--------------------------------(3)-------------------------------|-
B|------1--1----[B]3[/B]--[B]3[/B]---[B]3[/B]--[B]0[/B]--[B]1[/B]--[B]1[/B]--[B]0[/B]--[B]0[/B]---0--------1---3---0------3------------3--3--------------0-|-
G|---[B]0[/B]--0--0-------0---0-----2--2-----0---[B]0[/B]--[B]0[/B]-----0---2---[B]0[/B]-[B]2[/B]-[B]4[/B]--[B]2[/B]---------2-----2-------[B]0[/B]------[B]0[/B]-|-
D|------2--2-------0---0-----2--2-----0---0-----[B]4[/B]--[B]2[/B]---[B]4[/B]---0------0------5--------4-----------[B]4[/B]--0-|-
A|------3--3-------2---2-----0---------------------3---5---------(0)--5----------(0)---------------|-
E|------------------------------------3---3----------------3-------------------------------------3-|-
        C          G         Am       G            C   D   G      Dsus4           D              G

.
I think you can tackle the rest of it from here...... I'm a bit busy atm, but Good Luck!!
Last edited by tonibet72 at Jul 4, 2015,
#5
Quote by tonibet72
Re' your P.M: Here's what I got... Great Song BTW!!

note:you'll have to tune your guitar accordingly.
My versions in the key of G, just made everything easier;
You could use a capo on the 3rd fret and play everything in the tab 3 frets higher.
or just rewrite the tab with all notes 3 frets higher,
but I guess you can do that if you want.

www.youtube.com/watch?v=EnewZrOKxFo

                                               "Där borta vid pilen...
e|-0--0--2-(3)-3-----------------------------|------------------------------------------------|-
B|-1--1-----3--3--1--0--------5-----h-p---3--|-----sl-p--p----0-----0--0--0--1---h-p------(0)-|-
G|-2--2-----4--4--2-----2--0--0----0-2-0--2--|-----/4--2--0---0-0---0--0--0--0--0-2-0-----(0)-|-
D|-2--2-----4--4--2-----2-----4-----------4--|--0-------------0-----0--0--0--2---------2--(0)-|-
A|-3--------5--5--0-----0-----5----------(0)-|-------------------------------3------------(2)-|-
E|---------(3)-------------------------------|----------------3-----3---------------------(3)-|-
D6 Gmaj7 Am Dsus4 D G C (G)


<1st--time>
e|---------------------------------------3-----2-|~
B|-(0)--0----0------------1--3--0-----3--3-----3-|~
G|-(0)--0----0--0--0-0----0--2--0-2-4-2--2-----2-|~
D|-(0)--0----0----(0)--4--2--4--0-----0--0-(2)-0-|~
A|-(2)-------2------------3--5-------(0)---------|~
E|-(3)----3-------(3)-----------3----------------|~
(G) C D G D


"...Av den som förstod mig..."
e|-----------------------|-
B|-----------------0-----|-
G|-----/4--2---0---0---0-|- blah
D|--0--------------0-----|- blah...
A|-----------------------|-
E|-----------------3-----|-
G


<-----2nd---time----->
..."fanns jag ej där..."
~|--------------------2-|-
~|-3---------3--3-------|-
~|-2------2-----2-------|-
~|(5)--5--------4-(4)---|-
~|(5)----------(5)------|-
~|----------------------|-
Dsus4 D


..."Jag önskar jag stannat"... "...och min far
e|------0--0--------------------0--------------------------------(3)-------------------------------|-
B|------1--1----3--3---3--0--1--1--0--0---0--------1---3---0------3------------3--3--------------0-|-
G|---0--0--0-------0---0-----2--2-----0---0--0-----0---2---0-2-4--2---------2-----2-------0------0-|-
D|------2--2-------0---0-----2--2-----0---0-----4--2---4---0------0------5--------4-----------4--0-|-
A|------3--3-------2---2-----0---------------------3---5---------(0)--5----------(0)---------------|-
E|------------------------------------3---3----------------3-------------------------------------3-|-
C G Am G C D G Dsus4 D G

.
I think you can tackle the rest of it from here...... I'm a bit busy atm, but Good Luck!!



Wow i really appriciate the work you put in. However i think im way to novice to be able to learn this or tackle the rest myself.
I was hoping to get a TAB with like an easy picking pattern with 1 string hit at the time. Like a real "beginner" tab.
#6
I highlighted the melody in my TAB above (see post #4)
you can just play that line, if that's what you're asking?

Also here's the chords to strum along with the youtube clip
www.youtube.com/watch?v=EnewZrOKxFo (but just the first part),

when the music changes key, if your not using a capo just shift all the chords up 2 frets:
hoping that makes sense (after you try it).

      Piano Type Chords
A# D# F(sus4) F
e|(6)| |(3)| |(5)| |(5)|
b|-3-| |-4-| |-6-| |-6-|
g|-3-| |-3-| |-5-| |-5-|
d|-3-| |-5-| |-8-| |-7-|
a|-5-| |-6-| |-8-| |-8-|
E|-6-| |-x-| |-x-| |-x-|

(you can leave out the notes
in brackets to make it easier)?

Easier Chords
(but dont sound as good)
A# D# F(sus4) F
e|(6)| |(6)| |(8)-| |(8)-|
b|-6-| |-8-| |-11-| |-10-|
g|-7-| |-8-| |-10-| |-10-|
d|-8-| |-8-| |-10-| |-10-|
a|-8-| |-6-| |-8--| |-8--|
E|-6-| |-x-| |-x--| |-x--|

A# D# A#
Där borta vid pilen, har jag lagt min far
D# F A# Fsus4 F
En anonym urna är allt som finns kvar
A# D# A#
Av den som förstod mig, när jag var till besvär
D# F A# Fsus4 F
Trots all den kärlek fanns jag ej där

D# A# D# A#
Jag önskar jag stannat, jag skulle blitt kvar
D# F A# Fsus4 F A#
Den sista stunden, det borde vart jag, och min far

A# D# A#
Han lärde mig växter, och dess namn på latin
D# F A# Fsus4 F
Om fideikommiss och Boursin

A# D# A#
Men följde mig gärna, in i glamrockens land
D# F A# Fsus4 F
Tog del av min kunskap om engelska band
D# A# D# A#
Allt från John Strummer till Johnny Mars
D# F A# F A#
Stod på agendan då det var jag, och min far
Last edited by tonibet72 at Jul 2, 2015,