#1
Hello everybody. I was hoping someone out there would be able to tab out some beautiful music made by The Drawing Room (aka Joel Bruyere from Thousand Foot Krutch). There is only one album released by him (A self titled), plus an additional song.

Unfortunately, it is very difficult to find his music online. I've included any links to songs that I could find. The album is on Spotify, but only Trip is playing for me at the moment and I assume this is for other users as well. I'm sure there is a online download of the album somewhere but I can't find one to link to.

If I could get a tab for any of these songs that would be incredible. Here is the track listing + the extra song:

1. Keys (The Liaison) https://www.youtube.com/watch?v=WyRgYtX06VU
2. Trip https://open.spotify.com/track/3I0lHEzXdOXRUZhkhVX3Kn
3. The Garden Of Even
4. June Carter Cat
5. Hounds Of Winter
6. The Salt In My Lungs
7. Windsor For The Winter
8. The Spy https://www.youtube.com/watch?v=3WfI8tIHe7g
9. Skeleton Key
10. Sick Jack
11. Pocketwatch
12. Peddle
Ex. Catch https://soundcloud.com/joelbruyere/catch-the-drawing-room

As I said, any tabs that I can get would be greatly appreciated, and I'm sorry for the fact I can't supply you with many of his songs.

Thank you everyone!
#2
The Spy

Tuning: Standard

CHORD: F#?: x44304

e|----------------------------------------------------------------
B|---------------------------0---------------0-------------------
G|-------4----------------6-----6--------3-----------------------
D|----------6--------------------------4------------------4------
A|------------------------------------------------------4-----6---
E|--4------------4/6--------------------------------7------------


Verse: (power chords) Abm - F# - E - Eb (4)

Chorus:

E - Abm F#? -E (4)

Last chord:
e|---9+-----------
B|---9+-----------
G|---9+-----------
D|-----------------
A|------------------
E|------------------
Last edited by crmrz at Jul 13, 2015,