#2
Ok people I have now managed to tab most of the song so if anyone need the tabs I can give them
#5
Quote by ayreon77
why don,t you just upload it too the UG site?

I am in fact writing it now
#6
Quote by blizzard2561
I am looking for the tab love drive by the scorpions dose anybody have

This isn't related at all
#7
Ok well until Ultimate Guitar approves my tab, I'll put it here. I know it looks like a mess when it's posted here but I think that it is possible to understand it. Anyway you can ask me if you don't understand something

Tuning: Standard (EADGBe)


Intro:
e|----------------------------------------------------------------------------------------------------------|
B|----------------------------------------------------------------------------------------------------------|
G|-----------------2-2-2-2-4-2--------------------------------------2-2-2-2------------------2-2-2-2-4-2----|
D|----2-2-2-2--5-2~-----------5-2~-0-0-0-0-2-4-5-5-5-5-2-0-------1-4-------4-1-2-2-2-2---5-2~-----------5-2~|
A|--------------------------------------------------------2-2-2-2---------------------5-2-------------------|
E|----------------------------------------------------------------------------------------------------------|

e|--------------------------------|
B|--------------------------------|
G|--------------------------------| X2
D|2-2-2-2-4-5---------2-----------|
A|-----------3-3-3-3-5-2h3p2-0h2p0|
E|--------------------------------|

e|-------------------------------------------------------------------------------|
B|-------------------------------------------------------------------------------|
G|-------------------------------------------------------------------------------| X2
D|2---------2--------------------3-2---------2---------2---------------------3-2~|
A|2---------2---------------2-3-5----5-3-2---2---------2---------------2-3-5-----|
E|0-0-0-0-0-0-0-0-0-0-2-3-5----------------5-0-0-0-0-0-0-0-0-0-0-2-3-5-----------|
. . . . . . . . . . . . . . . .
e|-------------------------------------------------------------------------------------------------------|
B|10-10-13-11-10h11p10-----------8-10-8h10p8--------------------------10-10-13-11-10h11p10-----------8-10|
G|---------------------12~----10-------------10--9-10-7--7-7-7-6---------------------------12~----10-----|
D|-------------------------10-------------------------------------9-7~-------------------------10--------|
A|-------------------------------------------------------------------------------------------------------|
E|-------------------------------------------------------------------------------------------------------|

e|-----------------------------------12~~-12~~|
B|8h10p8-------------------10~~-10~~----------|
G|------10--9-10-7--7-9-10--------------------|
D|--------------------------------------------|
A|--------------------------------------------|
E|--------------------------------------------|


Verse:
e|--------------------------------------------|
B|----------------------------------------2-3~|
G|--------------------------------------3-----|
D|------------2-2-2-5-4-2-----------5-4-------|
A|2-2-2-2-4-5---------------------2-----------|
E|------------------------3-3-3-3-------------|


chorus:
e|--------------------------------------------|
B|--------------------------------------------|
G|--------------------------------------------| X2
D|7---------7-9-7-5-7---5-3-2h3p2-------5-3---|
A|5-5-5-5-5-5-7-5-3-5-3-----------5-3-------5~|
E|------------------------------------3-------|
. . . .
e|---------------------------------------------|
B|---------------------------------------------|
G|---------------------------------------------| X2
D|9---------9-11-9-7-9---7-5-4h5p4-------7-5---|
A|7-7-7-7-7-7-9--7-5-7-5-----------7-5-------5~|
E|-------------------------------------5-------|
. . . .

e|----------------|
B|----------------|
G|----------------| X2
D|-4-5-4-2h4p2----|
A|-------------5-4|
E|----------------|

Play the intro with a little change in the end of it:
e|----------------------------------------------------------------------------------------------------------|
B|----------------------------------------------------------------------------------------------------------|
G|-----------------2-2-2-2-4-2--------------------------------------2-2-2-2------------------2-2-2-2-4-2----|
D|----2-2-2-2--5-2~-----------5-2~-0-0-0-0-2-4-5-5-5-5-2-0-------1-4-------4-1-2-2-2-2---5-2~-----------5-2~|
A|--------------------------------------------------------2-2-2-2---------------------5-2-------------------|
E|----------------------------------------------------------------------------------------------------------|

e|--------------------------------|
B|--------------------------------|
G|--------------------------------| X2
D|2-2-2-2-4-5---------2-----------|
A|-----------3-3-3-3-5-2h3p2-0h2p0|
E|--------------------------------|

e|-------------------------------------------------------------------------------|
B|-------------------------------------------------------------------------------|
G|-------------------------------------------------------------------------------| X2
D|2---------2--------------------3-2---------2---------2---------------------3-2~|
A|2---------2---------------2-3-5----5-3-2---2---------2---------------2-3-5-----|
E|0-0-0-0-0-0-0-0-0-0-2-3-5----------------5-0-0-0-0-0-0-0-0-0-0-2-3-5-----------|
. . . . . . . . . . . . . . . .
e|-------------------------------------------------------------------------------------------------------|
B|10-10-13-11-10h11p10-----------8-10-8h10p8--------------------------10-10-13-11-10h11p10-----------8-10|
G|---------------------12~----10-------------10--9-10-7--7-7-7-6---------------------------12~----10-----|
D|-------------------------10-------------------------------------9-7~-------------------------10--------|
A|-------------------------------------------------------------------------------------------------------|
E|-------------------------------------------------------------------------------------------------------|

e|------------------10-10-10-9~-10-9~-10-9-10-12-13-12h13p12-10-9~|
B|8h10p8-------------------10~~-10~~------------------------------|
G|------10--9-10-7------------------------------------------------|
D|----------------------------------------------------------------|
A|----------------------------------------------------------------|
E|----------------------------------------------------------------|

Play verse and chorus again and end with:

e|---------------------|
B|---------------------|
G|--------------------4|
D|4-5-4-2h4p2-------4--|
A|------------5-4-2----|
E|---------------------|