#1
e|--------------10--------------------------------------------|
b|10-10b-8-10br----10br-8br-8---------------------------------|
g|----------------------9br-9-7-----------7-9p7h9-11-12p11h12-|
d|-------------------------------9-8-7-5----------------------|
a|------------------------------------------------------------|
E|------------------------------------------------------------|

e|----------------10----10-12b-12b~-|
b|8br-10-10h12h13----12-------------|
g|----------------------------------|
d|----------------------------------|
a|----------------------------------|
E|----------------------------------|


On the second bar you start on a bend release 8.

1. Bend release the 8 and move index finger up to play the 10 and then do the 10h12h13
2. Bend release the 8 with my index finger, play the 10 with my middle finger and 10h12h13 Hammering 12 with ring and 13 with pinky.

The riff is impossible for me both ways for me at the moment but I am wondering what is the most economical way to practice it?

Solo at 1:58
https://youtu.be/IeboKJfVH0k?t=1m57s

The tab is not entirely correct I guess.
http://tabs.ultimate-guitar.com/t/turbonegro/all_my_friends_are_dead_ver2_tab.htm
Last edited by MyOceanToSwim at Aug 17, 2015,