#1
sorry this is another try I made the try looking for thiese songs havent tabs , maybe you listen and someday give a try. Could you maybe do something with any one of these song ? It would be great help. Some riff , scale or something
There in each video I wrote the more relevant times when riff scales and solos appears after I listenned every song of discography bands, is a good selection.

HOLY MOSES Military Service 00.02.35 solo and riff
https://www.youtube.com/watch?v=z96zFuo5jVM
Corroded Dreams riff 00.54 up to 2.22
https://www.youtube.com/watch?v=semYScAr8Qc
Torches of Hire riff 00.08 up to 00.16


Artillery - At War with Science / guitar SOLO 03.55 up to 04.06 /RIFF 04.14 up to 06.00
https://www.youtube.com/watch?v=IxZHWy2uCzI
Artillery - Decapitation of Deviants RIFF 3.12 up to 03.29
https://www.youtube.com/watch?v=akMCyrhv648
Artillery back in thrash Riff tab for beginnig and then part 02.22 up to 02.38 and solo https://www.youtube.com/watch?v=zfqJvaYoCd4


Tankard Behind the Back 02.52 up to 03.01 part tapping
https://www.youtube.com/watch?v=vIJX1076YY8

Of strange talking people under arabian skies 05.18 up tp 05.27
https://www.youtube.com/watch?v=OJtmGQbJpMA

Tankard Rectifier solo 02.39 up to 02.59
https://www.youtube.com/watch?v=-kqFuKuHZW4
Voodoo Box riff 00.26 up to 00.46
https://www.youtube.com/watch?v=r9EFrAnmxV8
Sunscars solo 02.21 up to 02.29
https://www.youtube.com/watch?v=kb8CQIWhXpw

Rundown Quarter 01.59 very short part
https://www.youtube.com/watch?v=-GN8FhAkqbY
Alcoholic Nightmares 01.13 up to 01.22
https://www.youtube.com/watch?v=35_uleLDjIg

tankard Slipping from Reality 01.59 solo
https://www.youtube.com/watch?v=wZwblapj8SI
tankard Alien revenge riff 00.49 up to 01.10 02.16 up to 02.26
https://www.youtube.com/watch?v=XN5W1KgJc0g

tankard Fistful of love 02.59 up to 03.04 scale
https://www.youtube.com/watch?v=l7lC_BTd6Po
tankard The Beauty and the Beast 01.09 up to 01.18 riff and part of solo 02.33 up to 02.42
https://www.youtube.com/watch?v=xD05BzAQ5xw
tankard Myevilfart 01.10 up to 01.22
https://www.youtube.com/watch?v=s2kWweHCpZ8

Fat Snatchers 00.52 up to 01.22 riff and 01.40 up to 02.51
https://www.youtube.com/watch?v=ddNDJTLg1Z8

The Agency 04.19 short part
Not One Day Dead (But One Day Mad) 02.56 short part
Tankard (Rest In Beer riff 01.01, up to 01.22 https://www.youtube.com/watch?v=NK6c58ZkJBo

Tankard Breakfast for Champions 03.10 to 03.16
https://www.youtube.com/watch?v=NfT-XmHMusI
tankard Enemy Of Order 00.27 to 0.44 ,
https://www.youtube.com/watch?v=31fHgIn0O2A



ASSASSIN Nemesis 02.54 solo
https://www.youtube.com/watch?v=7Ag7jcIRczk
Assassin - Fight (To Stop The Tyranny) 01.56 solo
https://www.youtube.com/watch?v=yPKD8_0BLuY

Assassin - The Last Man 06.19 solo
https://www.youtube.com/watch?v=hOwIeeAD8-I



Evil army I Must Destroy You 01.27 solo
https://www.youtube.com/watch?v=HqKw8C3s-uY
Evil army I, Commander first solo 01.09 and second solo 02.20 solo
https://www.youtube.com/watch?v=1_zDm858Rq4


Wargasm Revenge 04.41 solo part ……or all the solo is good too
https://www.youtube.com/watch?v=SJOFqF994Kg


Exodus - The Last Act Of Defiance solo 03.14 up to 03.32
https://www.youtube.com/watch?v=aaIhXTL0kVM
Exodus Fabulous Disaster solo 02.29
Last edited by AlejandroAle at Sep 2, 2015,
#2
very unique riffs, scales and guitar solos , out of ordinary fast and good old thrash with timeless style , good selection. Its a good selection for people who is looking for something NOT NOT usual, normal, standard, typical, common exercises
#3
Mmm giving these a listen
Quote by LivinJoke84
I cant be naked. I have a huge fear of leaving a stain wherever i sit. Especially if its really warm
#5
-------------------------------------------------------------------------------
WarGasm - Revenge
-------------------------------------------------------------------------------
Tabbed by: metal_wecaste

Tuning:standard

Palm muted section

e|---------------------------------------------------------------------------|
B|---------------------------------------------------------------------------|
G|----------------------------------0-----------2~~-----------------------|
D|----------------------2----------------------------------------------------|
A|-0-1--0-4---0-1-0-----0-1-0-----0-1-0-------------------------------|
E|---------------------------------------------------------------------------|

verse section palm mute the 0 notes (0 = open E string )

e|---------------------------------------------------------------------------|
B|---------------------------------------------------------------------------|
G|---------------------------------------------------------------------------|
D|----------------------3---------------------4----------------------5-----|
A|--2-------------------1---------------------2---------------------3------|
E|--0--0-0-0-0-0-0---------0-0-0-0-0-0--------0-0-0-0-0-0---------|

e|---------------------------------------------------------------------------|
B|---------------------------------------------------------------------------|
G|---------------------------------------------------------------------------|
D|-------3-----3------------------------------------------------------------|
A|-------1-----1-------2----------------------------------------------------|
E|-0-0-----------------0----------------------------------------------------|


************************************

| / slide up
| \ slide down
| h hammer-on
| p pull-off
| ~ vibrato
| + harmonic
| x Mute note
| b Bend
| pb Pre-bend
| br Bend release
| pbr Pre-bend release
| brb Bend release bend

************************************
Sorry would like to do all tabs for most of these and more. Thrash bands tabs lost when my pc crashed years back.

Dont mind if you u claim this as your own work.

Dont have much free time to work on these.

Clue : Thrash bands use similar variations of the approaches to riffs like the given above when tabbing pioneer thrash.Do u know why?because it is simple to play standing up?because it creates a heavy sound? who knows.
Last edited by metal_wecaste at Oct 24, 2015,
#6
Wargasm Revenge if you can maybe only 04.41 up to 05.00 solo part is a short part


Quote by metal_wecaste
-------------------------------------------------------------------------------
WarGasm - Revenge
-------------------------------------------------------------------------------
Tabbed by: metal_wecaste

Tuning:standard

Palm muted section

e|---------------------------------------------------------------------------|
B|---------------------------------------------------------------------------|
G|----------------------------------0-----------2~~-----------------------|
D|----------------------2----------------------------------------------------|
A|-0-1--0-4---0-1-0-----0-1-0-----0-1-0-------------------------------|
E|---------------------------------------------------------------------------|

verse section palm mute the 0 notes (0 = open E string )

e|---------------------------------------------------------------------------|
B|---------------------------------------------------------------------------|
G|---------------------------------------------------------------------------|
D|----------------------3---------------------4----------------------5-----|
A|--2-------------------1---------------------2---------------------3------|
E|--0--0-0-0-0-0-0---------0-0-0-0-0-0--------0-0-0-0-0-0---------|

e|---------------------------------------------------------------------------|
B|---------------------------------------------------------------------------|
G|---------------------------------------------------------------------------|
D|-------3-----3------------------------------------------------------------|
A|-------1-----1-------2----------------------------------------------------|
E|-0-0-----------------0----------------------------------------------------|


************************************

| / slide up
| \ slide down
| h hammer-on
| p pull-off
| ~ vibrato
| + harmonic
| x Mute note
| b Bend
| pb Pre-bend
| br Bend release
| pbr Pre-bend release
| brb Bend release bend

************************************
Sorry would like to do all tabs for most of these and more. Thrash bands tabs lost when my pc crashed years back.

Dont mind if you u claim this as your own work.

Dont have much free time to work on these.

Clue : Thrash bands use similar variations of the approaches to riffs like the given above when tabbing pioneer thrash.Do u know why?because it is simple to play standing up?because it creates a heavy sound? who knows.
#7
Tuning:
----------(repeat x3)-------------------- ( alternate)-------------

e|---------15--19--15--------------------------15----20--15-----------|
B|--17-19---------------19--17-------17-19------------------19---17-|
G|---------------------------------------------------------------------------|
D|---------------------------------------------------------------------------|
A|---------------------------------------------------------------------------|
E|---------------------------------------------------------------------------|

----------(repeat x3)-----------------------(alternate)-------------------

e|-----------15--19--15-------------------------15---20-----------------|
B|--15--19---------------19----15----15---19----------19------15----|
G|---------------------------------------------------------------------------|
D|---------------------------------------------------------------------------|
A|---------------------------------------------------------------------------|
E|---------------------------------------------------------------------------|
Last edited by metal_wecaste at Oct 26, 2015,
#8
thanks for posting these bands, some cool thrash

can anyone tab this album and song? These riffs would be pretty fun to play.

https://www.youtube.com/watch?v=yxiki3pD9bU


https://www.youtube.com/watch?v=diMMvV3cxg4
SANDBLAST YOURSELF.


Quote by i_lovemetallica
If you think Gollum was sober with his whole "Gollum/Smeagol" thing and thinking he was invisible with the ring, then you need to remove the cotton wool from your eyes.

Wake up sheeple.

Sunaj
Last edited by nanna_guy414 at Nov 8, 2015,