#1
Trying to learn this solo by ear but am doing okay until I hit a snag during one of the fast run downs. I'm struggling since I don't play enough with with major blues (learned most of my licks in blues minor which don't seem to fit here).

EDIT: UG forums seems to think it's smarter than me and is dropping the youtube time offset. Copy and paste the link to get proper time offset (2:45)
https://youtu.be/hMY2kZ4YabY?t=164


Can anyone pinpoint what notes he's playing during that fast rundown?. It sounds very familiar and is probably a minor variation of a common major blues lick. I can get the gist of it but this is one place where I'd like to be as exact as possible.
this is a post. there are many like it but this one is mine

=======================

Taylor Big Baby
Agile 3100 CSB
Peavey classic 30/112
Okko Dominator, Big muff pi, cs3, dd3, ch1, ts9, ad9, classic wah
Last edited by mlfarrell at Sep 23, 2015,
#3
Quote by Tony Done
You could do what I do. - Record it in real time into something like Audacity (freeware) and slow it down until you can figure it note by note. IIRC the plug-in you need is "change tempo"; I use an Cool Edit Pro, but Audacity works fine.


Haha I considered that. I use audacity for everything. My only gripe is I'd lose the video too. The only thing that saves my bad ear is being able to analyze where his fingers are. I prob should still do it though. That or do both with ffmpeg or mplayer
this is a post. there are many like it but this one is mine

=======================

Taylor Big Baby
Agile 3100 CSB
Peavey classic 30/112
Okko Dominator, Big muff pi, cs3, dd3, ch1, ts9, ad9, classic wah
#4
Yeah, that's true, and I tend to also look at the original vid for guidance, at least to get an idea of the position. All-in-all a better bet than someone's inaccurate tab though. - The tab for one I'm trying to learn is truly awful, so I'm using my ear and trying to understand the kinds of chord voicings the original player would have used.
#5
I'm gonna go full on CSI on this shit. Going to highlight the notes and use audacity's spectrum to determine the pitch.
this is a post. there are many like it but this one is mine

=======================

Taylor Big Baby
Agile 3100 CSB
Peavey classic 30/112
Okko Dominator, Big muff pi, cs3, dd3, ch1, ts9, ad9, classic wah
#6
E-11b-11----8-------------------------------------------------
B-----------------11p8-------------10--------------------------
G------------------------10-8------10--8-------------------------8---
D-------------------------------10-----------10p8-------8--10-----
A----------------------------------------------------10------------
E----------------------------------------------------------

This part?
Last edited by esky15 at Sep 24, 2015,
#7
Quote by esky15
E-11b-11----8-------------------------------------------------
B-----------------11p8-------------10--------------------------
G------------------------10-8------10--8-------------------------8---
D-------------------------------10-----------10p8-------8--10-----
A----------------------------------------------------10------------
E----------------------------------------------------------

This part?


This will help a lot! thanks!
this is a post. there are many like it but this one is mine

=======================

Taylor Big Baby
Agile 3100 CSB
Peavey classic 30/112
Okko Dominator, Big muff pi, cs3, dd3, ch1, ts9, ad9, classic wah
#8
I had to keep bouncing back and forth on my phone so it might not be spot on but figured id try.