#2
Heya mate!

Here's the tab:
It just repeats this through the song.

e------------------------------------------
B------------------------------------------
G----------6-5--------------3------------
D----8-8-------6-6---4h6---------------
A-6-----------------------------6-6--4-6-
E-------------------------------------------

Enjoy!
#3
Quote by PedalFreak94
Heya mate!

Here's the tab:
It just repeats this through the song.

e------------------------------------------
B------------------------------------------
G----------6-5--------------3------------
D----8-8-------6-6---4h6---------------
A-6-----------------------------6-6--4-6-
E-------------------------------------------

Enjoy!

thank you so much