#1

Twiceyoung - Slow Down

Tuning = Standard


--------------
CAPO 3rd FRET
--------------


PICKING PATTERN
****************        VERSE 1
  G                     G                     Bm                    
e|-----------------|   |-----------------|   |-----------------|   
B|-----------------|   |-----------------|   |-----------------|   
G|-----0-----0-----|   |-----0-----0-----|   |-----0-----0-----|      
D|---0-----0-----0-|   |---0-----0-----0-|   |---4-----4-----4-|      
A|-2-----2-----2---|   |-2-----2-----2---|   |-5-----5-----5---|   
E|-----------------|X4 |-----------------|X4 |-----------------|X4 

 Em                    C
e|-----------------|   |-----------------|
B|-----------------|   |-----------------|
G|-----0---2-0---0-|   |-----0-----0-----|
D|---2---2-----2---|   |---2-----2-----2-|
A|-2---------------|   |-3-----3-----3---|
E|-----------------|X2 |-----------------|


VERSE 1
********
G                          Bm
Slow down, Everyone's been slowing down,

But I've been up all night, Thinking of you,


Hold tight, Everyones been keeping time,
But I can't see to choose, It's never too soon,

It's too late for us to fall asleep,

If I help you up, Will you lead me through night?
Will you take my heart? Can you promise me an afterlife?
Oh when we lose our time,

Slow down, I can see your slowing down,
But I won't leave your side, I'm waiting for you,

It's too late for us to fall asleep,

If I help you up, Will you lead me through night?
Will you take my heart? Can you promise me an afterlife?
Oh when we lose our time,

If I help you up, Will you lead me through night?
Will you take my heart? Can you promise me an afterlife?
Oh when we lose our time,

This is for the rest of us, Hoping its alright,
Old enough to die, Young enough to fight,
This is all that's left of us, You can take my life,
I can hear it moving on, Rising with my eyes,

This is for the rest of us, Hoping its alright,
Old enough to die, Young enough to fight,