#1
Hi, I'm quite new to guitar playing, and I know this is not the place to post this thread (but I can't post it where it should be).
I really cry for your help guys, I'm getting married in the near future and I can't find the tabs for this song https://www.youtube.com/watch?v=0TN1V9jZ-v4
It's one of my future wifes favorite songs so I'd like to play it for her. So.... could someone please help ?
#2
-------------------------------------------------------------------------------
%$^@@*- still in love
-------------------------------------------------------------------------------
Tabbed by:metal_wecaste
E-mail:

Tuning:standard

e|--------1--------------------3--------------------------4----------------|
B|-----------1----------------------4--------------------------6----6-----|
G|----------------1/----------------------5-----------------------6--------|
D|--------------3----------5----------5--------------6--------------------|
A|-----3----------------3-------------------------4------------------------|
E|--1-----------------------------------------------------------------------|


e|------------4--------------------------------------------------------------|
B|----------------4----------------------------------------------------------|
G|-----------------------5---------------------------------------------------|
D|---------------------6-----------------------------------------------------|
A|-------6-------------------------------------------------------------------|
E|----4----------------------------------------------------------------------|


************************************

| / slide up
| \ slide down
| h hammer-on
| p pull-off
| ~ vibrato
| + harmonic
| x Mute note
| b Bend
| pb Pre-bend
| br Bend release
| pbr Pre-bend release
| brb Bend release bend