#2
I decided to tab the whole song instead, dude.

JOHN E. DAVIS 90210 THEME SONG (2009) REMIX


Main Riff Intro (Repeat twice)

----------------------------------------------------------------------------------
----------------------------------------------------------------------------------
----------------------------------------------------------------------------------
---------7-7-------------------------------------------------------------------------
-7-7-----------5-5---7-7-----------------------------------------------------------
----------------------------------------------------------------------------------

(Lady sings "hello!" or something)

Melody line

------------------------------------------------------------------------------
--10----------------7-8-10--10----------------7-8-10/12---
---------7=--7-9--------------------7=---7-9----------------------
----------------------------------------------------------------------------------
----------------------------------------------------------------------------------
----------------------------------------------------------------------------------

----------------------------------------------------------------------------------
---10-8-7--------------------------------------------------------------------
---------------/9--9p7-7~~~--------------------------------------------
----------------------------------------------------------------------------------
----------------------------------------------------------------------------------
----------------------------------------------------------------------------------

Repeat Main riff once

The End.
#3
Btw the "=" sign up above in the tab indicates that you hold and let the note ring out for some time.