#1
I tabbed out the riff from the new song. I hope someone can use it.

e|---------------------------------
b|---------------------------------
G|-------------------------------0-
D|----------------------------2~---
A|---------------------------------
E|-3s6--6-6-6s3--3-3-3p0--0--------

e|------------------------------------
b|------------------------------------
G|------------------------------------
D|-----------------------2h3p2p0------
A|-------------------------------1p0--
E|-3s6--6-6-6s3--3-3-0-0--------------