#1
Hi guys, ive been trying to figure out for ages what Noel is playing during this song, i know he plays the riff and i know how to play that but when he starts singing , the lead takes over the riff and Noel is playing somthing on rhythem but really struggling to hear/see what it is exactly... Any help?

https://www.youtube.com/watch?v=xLSrde1EOJ4

Thanks in advance
#3
Something like this (tab counted from capo on 4)?
---------------------------
---------------------------
---------------------------
-2-2-0-2---0---2----------------
-2-2-0-2---0---2-----------------
-------------3--------------
#4
Quote by jongtr
Something like this (tab counted from capo on 4)?
---------------------------
---------------------------
---------------------------
-2-2-0-2---0---2----------------
-2-2-0-2---0---2-----------------
-------------3--------------



Hi mate, thanks! I'll give this a go because I've tried singing and playing the main riff at the same time and it is a little odd to do them both. finding it harder to sing and play than ''Come as you are'' haha which I've nailed now.
#5
---------------------------
---------------------------
---------------------------
-2-2-0-2---0---2----------------
-2-2-0-2---0---2-----------------
-------------3-------------- its may be change .. please obserb.