#1
ok Don here you go.


SOLO
*****
     s          s                    s  s      s
e|-17\19-17---10\12-10----s--s---|-12\14/12--12\14-12-12-|
B|-17\19-17---10\12-10--10\12/10-|-12\14/12--12\14-12-12-|
G|-------------------------------|-----------------------|
D|-------------------------------|-----------------------|
A|-------------------------------|-----------------------|
E|-------------------------------|-----------------------|

                    s           s
e|-------------10-10\12----10-10\8---8-|
B|---s---13------------------------8---|
G|-10\12----12----------12-------------|
D|-------------------------------------|
A|-------------------------------------|
E|-------------------------------------|


e|-------------|-----------------|
B|--s--8-8---8-|-10\12--10\12-10-|
G|-5\7-----7-7-|--9\11---9\11--9-|
D|-------------|-----------------|
A|-------------|-----------------|
E|-------------|-----------------|