#1
Been driving me crazy - cant think of the name or artist....
It's a sorta game = see if you can figure it out!

Thanks!

Also attached as .txt tab file.

4/4 & 240
or could be 8'ths at 120


E ||---------------|----------------|----------------|----------------|
B ||---------------|----------------|----------------|----------------|
G ||---------------|----------------|----------------|----------------|
D ||---------------|-----7---------|----------------|-----7----------|
A ||-------7------|--7-----7------|--------7------|--7-----7------|
E ||-5--5----5---|-----------5---|--4--4-----4--|-----------4----|


----------------|----------------|----------------|---------------|||
----------------|----------------|----------------|---------------|||
----------------|----------------|----------------|---------------|||
----------------|-----4----------|----------------|-----0--------|||
--------4------|--4-----4-------|--------4------|--4----4------|||
--2--2----2---|-----------2----|--0--0----0---|-----------0---|||
Attachments:
unknown .txt
Last edited by Raampage at Dec 21, 2015,
#3
You could be the lucky star!
I have nothing to offer other than a "Thanks!!!!" if you get it right - but you would sleep good at night knowing you figured it out amongst thousands of other lesser-thans......