#1
Hey guys! I need some help figuring out the intro of Two Door Cinema Club - Something Good Can Work.

In guitar, according to tab pro, it is:

|---------0-------|-----0-----------|-0-----------0---|
|-1---3-------1---|-3-------1---3---|-----1---3-------|
|-----------------|-----------------|-----------------|
|---3---3---3---3-|---3---3---3---3-|---3---3---3---3-|
|-----------------|-----------------|-----------------|
|-----------------|-----------------|-----------------|


But i don't need something that accurate and that complex. Something more simple will do just fine. For instance, this one guy tabbed it with capo on 5th (guitar) like this:

|-0----------|-0--------3-|
|---3-1-0----|---3-1-0----|
|----------0-|------------|
|------------|------------|
|------------|------------|
|------------|------------|


I got somewhat close to it in the ukulele like this (regular tuning):

|-----------------|
|-----------------|
|-0-2-4-0-0-2-4-0-|
|-----------------|


But I still feel like there's something missing to it. Can someone help me out? Thanks!
#2
Each ukulele string is tuned a perfect 4th higher than a guitar's which means that you can play the same tab on a tenor ukulele as on a guitar with capo 5.

The ukulele tab would look like this:

A|-0----------|-0--------3-|
E|---3-1-0----|---3-1-0----|
C|----------0-|------------|
G|------------|------------|