#1
Hey guys, so I'm learning a song, and I have all the parts down except for the bridge. I think I have an idea of what the guitarist is playing, but still not 100% sure.

The song is "Take Your Time" and the bridge starts at 2:30
Here's the link: http://www.theguardian.com/music/musicblog/2016/jan/29/diiv-is-the-is-are-exclusive-album-stream


Here's what I think he's playing:


e|------------------------------|
B|------------------------------|
G|--------9\\------------9\\----|
D|-7--7-9------7-9--9-10------7-|
A|------------------------------|
E|------------------------------|


and so you don't get confused, here's what's being played by the rhythm guitar:


e|----------------------|---------------------------|
B|----------------------|-------------6---5---6-----|
G|---0----0-----0-----0-|---0----0----------------0-|
D|-55---55---55----55---|-55---55---5---5---5---5---|
A|----------------------|---------------------------|
E|----------------------|---------------------------|


Thanks!