#1
Hey guys, so I've been trying to learn the rhythm guitar for this song (exactly how he plays it in the video). I'm looking for some "advanced" help rather than just a beginner chord tab.

Wild Nothing - Gemini:
https://www.youtube.com/watch?v=dolvg_o_PLg

This is what I think the intro sounds like (capo on 4th fret):


e|----------------------------|------------------------------|
B|---1-------0----------------|---1--1-3---3---0-------------|
G|-----0--------0-------0-----|---0--0-----------------0-----|
D|-------2--------2---2---2---|---2--2-------------2/4---4---|
A|-0-------0--------0-------0-|-0-0--0---0---0---0---------5-|
E|----------------------------|------------------------------|

e|-----------------------|
B|----3--3--0------------|
G|----0--0------2--2---0-|
D|----2--2---------------|
A|-2--3--3----3------3---|
E|-----------------------|


Any help would be appreciated!!!