#2
On the song HOPE DIES LAST by MENTAL ISSUES there is a really huge difference between the acoustic version and the CD version

ACOUSTIC VERSION:
http://youtu.be/Bt97k74eXEE

I can do the acoustic version (I believe the CDs version would be the same chords)
But I can not find the lyrics for the song on the Internet.... Do you have the lyrics
To the song... If so, I can do a chord tab for you.
Last edited by DON CZARSKI at Feb 21, 2016,
#3
I was asking for the accoustic , would be great if you could do that one.
The text is a little different to the CD version :


You always seem to be
Hellbent on getting your way
Since you're always
Trying to fuck with me
But I will never
Let you get under my skin
To take what I've created
And tear it down again


No matter how hard I try
You're always there laughing at me
But I will not give in
Because Hope dies last!


Broken
Down but never defeated
I will not surrender to you


No matter what I do
It never seems to be enough
To change the outcome
I always fall back to the start


No matter what I do
It never seems to be enough
To change the outcome
I always fall back to the start

(Solo)

We are the kings of this world!


Thanks in advance.
#4
I will do this first thing tomorrow for you and will post the link to the tab here when done... Thanks for the lyrics...
#7
here you go Don see if this is ok. put it on a few other strings so its a little easier to play.


these are the actual frets on the guitar, with or without a capo
02:29                                 s
e|---------11-------h---|-----------11\14----|
B|----9-------11--11-12-|--s---9----------12-|
G|-11---11--------------|-9\11---11----------|
D|----------------------|--------------------|
A|----------------------|--------------------|
E|----------------------|--------------------|

              s
e|-----------9\11-------h-----s---------h--p---------|
B|--s---9---------11--11-12-12\14-12--11-12-11-------|
G|-9\11---11-----------------------------------11-13-|
D|---------------------------------------------------|
A|---------------------------------------------------|
E|---------------------------------------------------|

          s                      s
e|-------9\11-------h----------11\14-------h----b----|
B|------------11--11-12--------------12--12-14-14~~~-|
G|-11-13----------------11-13------------------------|
D|---------------------------------------------------|
A|---------------------------------------------------|
E|---------------------------------------------------|


e|---p---------h--p--------s-|----h--------|
B|-14-12-14--12-14-12-11-12\-|-7-7-9-9~~~~-|
G|---------------------------|-------------|
D|---------------------------|-------------|
A|---------------------------|-------------|
E|---------------------------|-------------|


and nice and short like you like them
#8
Thanks ayreon77 for the solo at the end of the song.... I added it to my tab and credited you for it....
#10
here you go, but next time make a new post, because your request here might not get seen by many people.


  C                 C                 Am                Am
e|-----1---0-------|-----1---0-------|-----1---1-------|-----1---0-------|
B|-------1---1---1-|-------1---1---1-|-------1---1---1-|-------1---1---1-|
G|-------------0---|-------------0---|-------------0---|-------------0---|
D|---2-------------|---2-------------|---2-------------|---2-------------|
A|-3---------------|-3---------------|-0---------------|-0---------------|
E|-----------------|-----------------|-----------------|-----------------|

  D                 D                 G                 G
e|-----1---0-------|-----1---0-------|-----1---0-------|-----1---0-------|
B|-------3---3---3-|-------3---3---3-|-------1---1---1-|-------1---1---1-|
G|---2---------2---|---2---------2---|-------------0---|-------------0---|
D|-0---------------|-0---------------|-----------------|-----------------|
A|-----------------|-----------------|---2-------------|---2-------------|
E|-----------------|-----------------|-3---------------|-3---------------|