#1
I've had some help already from some regulars here at UG on playing this solo (Around 1:00) https://www.youtube.com/watch?v=HcYZSUtB8iM Can anyone correct my tab (especially the faster part near the end of the solo)? Thanks in advance!

e|--------------------------------|-------11---13b15---rp11-13----11-13-----
B|--------------------------11-13-|-13-------------------------13-------13--
G|-------10/12-12-----------------|-----------------------------------------
D|-s10-13-------------------------|-----------------------------------------
A|--------------------------------|-----------------------------------------
E|--------------------------------|-----------------------------------------
    1   +   2   +   3       4  +     1  +  2    +     3     +     4     +


e|------------------------------------------------------
B|------11p8--------------8-8h11p8--8------------------
G|-----------10p8------------------10-8 10 ------------
D|-----------------------------------------10-------------
A|-------------------------------------------------
E|------------------------------------------------------

e|----------------------------------------------11h13p11--------
B|-----------------------------------11---11 13----------------------
G|---------------10--10---12p10p12----12-----------------------------
D|-10-13p10h13----13--------------------------------------------------
A|---------------------------------------------------------------------
E|---------------------------------------------------------------------


e|--13b15---rp11-13----------------------------------
B|------------------13 13 11 13--------------------
G|----------------------------- ------------
D|------------------------------------------------------
A|-------------------------------------------------
E|------------------------  
#4
You need to learn how to use slow-downers and how to be patient.

If you're asking for help all the time, you're not going to learn how to use your ears.

https://tabs.ultimate-guitar.com/s/shuggie_otis/jennie_lee_solo_tab.htm
Glad to cross paths with you on this adventure called life
Quote by Jet Penguin
lots of flirting with the other key without confirming. JUST LIKE THEIR LOVE IN THE MOVIE OH DAMN.
Quote by Hail
you're acting like you have perfect pitch or something
#5
yea some software can help you slow down the solo and it really help you learn the song, then you can gradually speed it up till it comes back to the correct speed, great tab Neo i,ll check it out.
#7
^ again, slow things down and match sounds from the song to sounds on your guitar.

No problem!
Glad to cross paths with you on this adventure called life
Quote by Jet Penguin
lots of flirting with the other key without confirming. JUST LIKE THEIR LOVE IN THE MOVIE OH DAMN.
Quote by Hail
you're acting like you have perfect pitch or something
#8
yea and do one note at a time, the more you learn songs from ear the quicker you pick up the notes and were there played on the neck too. you get a good idea of what string there played on.