#1
Rhythem and lead Tuned whole step down DGCFAD
D---------------------------------------------------------
G-12------12-------11----11-------14--------14-----------------
C----10-------10------9------9---------12---------12------------
F--------9--------9------7-------7----------10---------10--------
A-------------------------------------------------------------------
D-------------------------------------------------------------------
Use That rhythm 2X
D-------------------------------------------------------------------------------------------------
G-------------------------------------------------------------------------------------------------
C-------------------------------------------------------------------------------------------------
F-------------------------------------------------------------------------------------------------
A------------10-----------10-----------------12-------------12--------------9--------------9---
D--T-12--8------T-12--8---------T-13-10------T-13--10-------T-10--7------T-10--7---------
Lead 2X... You can also 5 string sweep pick the lead or pick the rythem arpeggio like chords, it's a A minor arpeggio, b dim. arpeggio , and G# dim. Arpeggio

Does anyone have any Ideas for a cool solo, either harmonic minor scale run or phygrian dominant scale runs or any thing cool like that? I would like to write a song with this in it.
#3
Quote by AvoidingBee7
How about E----0-3-5---0-3-6-5---0-3-5---3--0--

Hey that sounds cool but
1. Would it still b in the same key
2. that sounds familiar is it from a song
3. That would sound cool as a bass and guitar riff