#1
Hi
I'm trying to tackle that one. I managed to get single notes but I'm really struggling with the chords.
I tabbed the riffs, and the sections where he uses octaves, but I can't get a grip of some chords he uses.

Colour Haze - She Said live

This is the only video I found where you can see what he's doing.

if Anyone could help with these sections :
- 05:17 to 05:56
- 09:13 to 10:05
- 12:40 - 13:18
I would be infinitely grateful.

Another question, what's that technique he's using around 10:10 where he kinda slaps the strings with his thumb?
Any link to somewhere where I learn more about it?
Thanks
#4
Hi a.bencherradi 

I found this on my old computer. But know if it's accurate and cannot check it right now.
I've tabbed this a few years ago. It's also incomplete. Don't know which parts you have.
Maybe we can merge our files?

Cheers!


  4:26
e|---------------------------------------------------------------------------|
B|--------13~~---12h13-12--------15/13---------------------------------------|
G|------------------------12-14--14/12---------------------------------------|
D|-10--12-------------------------------12-----------------------------------|
A|---------------------------------------------------------------------------|
E|---------------------------------------------------------------------------|


e|---------------------------------------------------------------------------|
B|---------------------------------------------------------------------------|
G|-10-9----9--10h12-----------9----------------------------------------------|
D|------12----------10~~-9-10----12------------------------------------------|
A|---------------------------------------------------------------------------|
E|---------------------------------------------------------------------------|


e|---------------------------------------------------------------------------|
B|--------13~~---12h13-12--------15/13---------------------------------------|
G|------------------------12-14--14/12---------------------------------------|
D|-10--12-------------------------------12-----------------------------------|
A|---------------------------------------------------------------------------|
E|---------------------------------------------------------------------------|


e|---------------------------------------------------------------------------|
B|---------------------------------------------------------------------------|
G|-10-9----9--10h12----------------------------------------------------------|
D|------12----------10~~-10-9-12---------------------------------------------|
A|---------------------------------------------------------------------------|
E|---------------------------------------------------------------------------|

Repeat 2x


Play around with this
5:20 -  
e|---------------------------------------------------------------------------|
B|-10--10--10---------10-10--15-------15-15-13-------17--18------------------|
G|-9---9---11---------11-11--14-------14-14-12-------16--17------------------|
D|-0---0---0-----------0--0--0---------0--0--0--------0---0------------------|
A|---------------------------------------------------------------------------|
E|---------------------------------------------------------------------------|


  7:10
e|---------------------------------------------------------------------------|
B|---------------------------------------------------------------------------|
G|---------------------------------------------------------------------------|
D|---------------------------------------------------------------------------|
A|-3b-3h5--3p0-----3b-3h5--3p0------3b-3h5--3p0--------5-3----3-5-3----------|
E|-------------0----------------0----------------0---0------0----------------|


e|---------------------------------------------------------------------------|
B|---------------------------------------------------------------------------|
G|---------------------------------------------------------------------------|
D|---------------------------------------------------------------------------|
A|-3b-3h5--3p0-----3b-3h5--3p0------3b-3h5--3p0--------5-3----3-5-3----------|
E|-------------0----------------0----------------0---0------0----------------|


e|---------------------------------------------------------------------------|
B|---------------------------------------------------------------------------|
G|---------------------------------------------------------------------------|
D|---------------------------------------------------------------------------|
A|-3b-3h5--3p0-----3b-3h5--3p0------3b-3h5--3p0--------5-3----3-5-3----------|
E|-------------0----------------0----------------0---0------0----------------|


e|---------------------------------------------------------------------------|
B|---------------------------------------------------------------------------|
G|---------------------------------------------------------------------------|
D|---------------------------------------------------------------------------|
A|-3b-3h5--3p0-----3b-3h5--3p0------3b-3h5--3p0--------5-3----3-5-3----------|
E|-------------0----------------0----------------0---0------0----------------|


  7:37 - 7:43 drums 

  7:44 Face-melting riff starts here
e|---------------------------------------------------------------------------|
B|---------------------------------------------------------------------------|
G|---------------------------------------------------------------------------|
D|-------10h12---------------------------------------------------------------|
A|-10h12-10h12-10h12--10----17h19--14h15-------------------------------------|
E|-10h12-------10h12--10----17h19--14h15-------------------------------------|


e|---------------------------------------------------------------------------|
B|---------------------------------------------------------------------------|
G|---------------------------------------------------------------------------|
D|-------10h12---------------------------------------------------------------|
A|-10h12-10h12-10h12--10----17h19--14h15-------------------------------------|
E|-10h12-------10h12--10----17h19--14h15-------------------------------------|


e|---------------------------------------------------------------------------|
B|---------------------------------------------------------------------------|
G|---------------------------------------------------------------------------|
D|-------10h12---------------------------------------------------------------|
A|-10h12-10h12-10h12--10----17h19--14h15-------------------------------------|
E|-10h12-------10h12--10----17h19--14h15-------------------------------------|


e|---------------------------------------------------------------------------|
B|---------------------------------------------------------------------------|
G|---------------------------------------------------------------------------|
D|-------10h12---------------------------------------------------------------|
A|-10h12-10h12-10h12--10----17h19--14h15-------------------------------------|
E|-10h12-------10h12--10----17h19--14h15-------------------------------------|


  7:58 singing starts ("she said...")         repeat 8x
e|---------------------------------------------------------------------------|
B|---------------------------------------------------------------------------|
G|---------------------------------------------------------------------------|
D|-------10h12---------------------------------------------------------------|
A|-10h12-10h12-10h12--10----17h19--14h15-------------------------------------|
E|-10h12-------10h12--10----17h19--14h15-------------------------------------|


  Repeat 4x                        Bass bend shizzle at 14h15
e|---------------------------------------------------------------------------|
B|---------------------------------------------------------------------------|
G|---------------------------------------------------------------------------|
D|-------10h12---------------------------------------------------------------|
A|-10h12-10h12-10h12--10----17h19--14h15-------------------------------------|
E|-10h12-------10h12--10----17h19--14h15-------------------------------------|


e|---------------------------------------------------------------------------|
B|---------------------------------------------------------------------------|
G|---------------------------------------------------------------------------|
D|-------10h12---------------------------------------------------------------|
A|-10h12-10h12-10h12--10----17h19--14h15-------------------------------------|
E|-10h12-------10h12--10----17h19--14h15-------------------------------------|


  Repeat 4x                        Bass bend shizzle at 14h15
e|---------------------------------------------------------------------------|
B|---------------------------------------------------------------------------|
G|---------------------------------------------------------------------------|
D|-------10h12---------------------------------------------------------------|
A|-10h12-10h12-10h12--10----17h19--14h15-------------------------------------|
E|-10h12-------10h12--10----17h19--14h15-------------------------------------|


  9:32
e|---------------------------------------------------------------------------|
B|-b12-10-12-13--12h13-b13-12-13-----b12-10-12-13--12h13-b13-12-13-----------|
G|---------------------------------------------------------------------------|
D|---------------------------------------------------------------------------|
A|---------------------------------------------------------------------------|
E|---------------------------------------------------------------------------|