#1
Love this song, but can't find a tab for it anywhere. I'd like one that is similar to the YouTube video (link below) if possible. There are only a few shots of the picking and I can't quite pick it up. Thanks!!

Last edited by rlynnes at Jul 29, 2016,
#2
I can probably do it this weekend. Are you okay with non-standard tuning? (Drop D in this case)
#3
NeoMvsEu

Sure! Whatever is easiest for you. I really appreciate it!!
#4
This is taking longer than desired, so up to first verse for now


[INTRO]
1
e|-----------5---3---2---0---------|-----------5---3---2---0---------|
B|---------3-------------------3---|---------3-------------------3---|
G|-------0-----------------------0-|-------0-----------------------0-|
D|-----4---------------------------|-----4---------------------------|
A|---5-----------------------------|---------------------------------|
D|-0-------------------------------|-5-------------------------------|
1 e + a 2 e + a 3 e + a 4 e + a 1 e + a 2 e + a 3 e + a 4 e + a

Gtr I
3
e|-----------5---3---2---0---------|-----------5---3---2---0---------|
B|---------3-------------------3---|---------3-------------------3---|
G|-------0-----------------------0-|-------0-----------------------0-|
D|-----4---------------------------|-----4---------------------------|
A|---5-----------------------------|---------------------------------|
D|-0-------------------------------|-5-------------------------------|
1 e + a 2 e + a 3 e + a 4 e + a 1 e + a 2 e + a 3 e + a 4 e + a

Gtr II
3
e|-----------5---3---2---0---------|-----------5---3---2---0---------|
B|---------3-------------------3---|---------3-------------------3---|
G|-------0-----------------------0-|-------0-----------------------0-|
D|-----4---------------------------|-----4---------------------------|
A|---5-----------------------------|---------------------------------|
D|-0-------------------------------|-5-------------------------------|
1 e + a 2 e + a 3 e + a 4 e + a 1 e + a 2 e + a 3 e + a 4 e + a


[VERSE 1]

Gtr I
5
e|---------------------------------|---------------------------------|
B|-------3-------3-------3-------3-|-------3----------------3--------|
G|-----------2---------0-----0-----|-----------2---------------------|
D|---------------------------------|----------------------0----------|
A|-----------------0h2-------------|---------------------------------|
D|-0-------------------------------|-0---------------0---------------|
1 e + a 2 e + a 3 e + a 4 e + a 1 e + a 2 e + a 3 e + a 4 e + a

Gtr II
5
e|---------------------------------|-----------------0h2---0---------|
B|---------------------------------|-----------------------------3---|
G|---------------------------------|---------------------------------|
D|---------------------------------|---------------------------------|
A|---------------------------------|---------------------------------|
D|---------------------------------|---------------------------------|
1 e + a 2 e + a 3 e + a 4 e + a 1 e + a 2 e + a 3 e + a 4 e + a

I - 7
e|-----------------2---------------|-----------------5---------------|
B|-------3-----------------3-------|-------3-------3---------3-------|
G|-----------4---------------4---4-|-----------0---------------0---0-|
D|-----4-----------------------4---|-----------------------------0---|
A|-2---------------2---------------|---------------------------------|
D|---------------------------------|-5---------------5---------------|
1 e + a 2 e + a 3 e + a 4 e + a 1 e + a 2 e + a 3 e + a 4 e + a

II - 7
e|---------------------------------|---------------------------------|
B|-------3---------------3---------|-------3-------3-------3-------3-|
G|-----------4---------------4-----|-----------0---------------0-----|
D|---------------------------------|---------------------------------|
A|-2---------------2---------------|---------------------------------|
D|---------------------------------|-5---------------5---------------|
1 e + a 2 e + a 3 e + a 4 e + a 1 e + a 2 e + a 3 e + a 4 e + a

I - 9
e|---------------------------------|-----------------0h2-----0-------|
B|-------3-------3-------3-------3-|-------3---------------------3---|
G|-----------2---------0-----0-----|-----------2---------------------|
D|---------------------------------|---------------0-----------------|
A|-----------------0h2-------------|---------------------------------|
D|-0-------------------------------|-0-------------------------------|
1 e + a 2 e + a 3 e + a 4 e + a 1 e + a 2 e + a 3 e + a 4 e + a

II - 9
e|---------------------------------|-----------------0h2---2-0-------|
B|-------3-------3-------3---------|-------3-------------------3-----|
G|-----------2---------0-----0-----|-----------2---------------------|
D|---------------------------------|---------------------------------|
A|-----------------0h2-------------|---------------------------------|
D|-0-------------------------------|-0-------------------------------|
1 e + a 2 e + a 3 e + a 4 e + a 1 e + a 2 e + a 3 e + a 4 e + a


I - 11
e|-----------------2---------------|---------------------------------|
B|-------3-----------------------0-|-------3-------3-3---------------|
G|-----------4---------4-------2---|-----0-----0---------------------|
D|-----4-------4---------4---------|---------------------------------|
A|-2-----------------------0-------|-----------------0---------------|
D|---------------------------------|-5-------------------------------|
1 e + a 2 e + a 3 e + a 4 e + a 1 e + a 2 e + a 3 e + a 4 e + a

II - 11
e|-----------------2-------0-------|---------------------------------|
B|-------3-------------------------|-------3-------------------------|
G|-----------4---------4-------2---|-----------0---0-----------------|
D|---------------------------------|-----0-------0---2---------------|
A|-2---------------2-------0-------|-----------------0---------------|
D|---------------------------------|-5-------------------------------|
1 e + a 2 e + a 3 e + a 4 e + a 1 e + a 2 e + a 3 e + a 4 e + a
#5
Looks great so far!!! Thank you so much for taking the time! If it becomes too burdensome, please don't worry about it - I can probably get by with this plus the chorus.

Thanks again!