#2
ok, this would originally be played tuned a half step down, in Am, G and F positions, like



If we want to play it in standard tuning, we have to move it to G#m and it's all straightforward except for the last bar which we'll have to change the positioning of.
Play the E at the 7th fret with your 3rd finger, while holding the F# at the 4th fret with your first finger, then use your 4th finger to play the notes at the 8th fret with a barre.

#3
NSpen1

Thanks! Any tips on the other little riff that happens before the chorus (I believe)?
#4
I assume you mean that little melodic riff, that would be like

                              F       ~~~~~~~~~~~~~
|7----------------|7----------------|----------------|
|----5---7--5--4--|---5---7--(7)-7--|(7)-------------|
|-----------------|-----------------|----------------|
|-----------------|-----------------|----------------|
|-----------------|-----------------|----------------|
|-----------------|-----------------|----------------|

Play the F# at 7th fret, don't bend it immediately but bend it up in time after an eighth note, then release. I'm not sure whether it's best to pick the note again or just release without picking but either will work.
One other part you might need is the variation to the intro part which is played in the verse. Tuned down a half step :



So in standard it can be :

#5
Do you have to play in the exact same key as the recording? Nothing is stopping you from playing in A minor.

Also, this is a different way to play the same notes in A minor (without re-tuning):

e|-------------------------|-------------------------|
B|-------------1-----------|-------------0-----------|
G|-------2---------2-------|-------0---------0-------|
D|-2-------2-----------2---|-0-------0-----------0---|
A|-------------------------|-------------------------|
E|-------------------------|-------------------------|


e|-------------------------|-------------------------|
B|-------------------------|-------------------------|
G|-------------2-----------|-2---0-----------0-------|
D|-------3---------3-------|---------3-----------3---|
A|-3-------3-----------3---|-------------3-----------|
E|-------------------------|-------------------------|


e|-------------------------|-------------------------|
B|-------------1-----------|-------------0-----------|
G|-------2---------2-------|-------0---------0-------|
D|-2-------2-----------2---|-0-------0-----------0---|
A|-------------------------|-------------------------|
E|-------------------------|-------------------------|


e|-------------------------|-------------0-----------|
B|-------------------------|-------------0-----------|
G|-------------2-----------|-2---0-------------------|
D|-------3---------3-------|---------3---------------|
A|-3-------3-----------3---|-------------------------|
E|-------------------------|-------------------------|