#1
Heart's song, Make Me, is really awesome. Incorporates interesting techniques, i.e. Tuning down the strings in the middle of the song and some harmonics and even a cool finger picking pattern. I haven't figured it out tho! It's killing me! If I could get someone to tab out the song (including the intro on the album version) that'd be SWEER
#2
ok, so the song starts off with the low E being played, then tuned down to D manually.
After that play harmonics at the 12th fret on low D, A, D, G strings.
Next like this :

|----------0-----0-----0-----------0-------------|
|-------6----6-----6-------6---------------(6)\--|
|2-/-5---------5-----5---------5-----------(5)\--|
|------------------------------------------------|
|------------------------------------------------|
|------------------------------------------------|
(legato slide)

Then repeat the harmonics, and slide from 2nd fret to 7th and play a similar pattern on 0 8 7 instead of 0 6 5 on the E, B, G strings.
Harmonics for a 3rd time, then slide from 7th fret to 12th and play 0 13 12.

The electric riff is :
| ----------------|----------------|----------------|----------------|
| ----------------|----------------|----------------|----------------|
| ----------------|----------------|----------------|----------------|
| ------3---2-----|----------------|7--7--5-------2/|3---------------|
|/5-5555------3/5\|3------------/5-|----5-----5-----|----------------|
| ----------------|----------------|----------------|----------------|
                     ~~~~~~~~~~  let ring--------|     ~~~~~~~~~~~~
(legato slides on 3/5\3 and 2/3)

If you still need this then I can try to work some more out.