#1
Hi gang,
I can't find a TAB anywhere for 'Faster Car' by Anders Lystell.
Does anyone have one? It's kinda odd that a popular song hasn't been tabbed by anyone.

THUS, I'm trying to tab it out myself but I'm stuck.
I've got the verses down. They're as follows:

------------------------------------------------------
-------------4---------6---------7----------7-------
-------------4---------6---------8----------8-------
-------------------------------------------------------
--------2----------/4----------6--------6-----------
-------------------------------------------------------

OR with Capo on 2nd

------------------------------------------------------
-------------2---------4---------5----------5-------
-------------2---------4---------6----------6-------
-------------------------------------------------------
--------0----------/2----------4--------4-----------
-------------------------------------------------------

Now the reason I think it's capo on 2 is 'coz of the first chord of the chorus.
I think this is an A (with capo)

--------0--------
--------2--------
--------2--------
--------2--------
--------0--------
------------------

which is a lot easier than playing

--------2--------
--------4--------
--------4--------
--------4--------
--------2--------
------------------

I need help with the rest of the chorus chords.
The song is here: https://soundcloud.com/aysel-pva/faster-car-anders-lystell
There's an instrumental version here: https://soundcloud.com/epidemic-sound/faster-car-instrumental-version-by-anders-lystell

Any help would be appreciated.
I'm sure this is a quick and easy challenge for experienced tabbers.
Thanks very much
Last edited by imbleeding at Sep 16, 2016,
#2
imbleeding hey I can help you! I tabbed out the whole song, and I think I have it correct!
#3
I am also looking for the tabs to this song. Is there any place I can find them on the interwebs ^,..,^