#1
Hey guys,

I can't be the only one who has noticed this but I think there might be two ways of interpreting the intro riff of White Washed, I just wanted to know if you guys hear the same . What do you think could be the reason for hearing this "audio illusion"?

Possible interpretations are (grab your axes):


- -13----13----13----------------|
- ----------17----17-15----------|
- ----14----------------14-------|
- -------------------------------|
- -------------------------------|
- -------------------------------|


and


- -13-17-13----13----------------|
- ----------17----17-15----------|
- ----------------------14-------|
- -------------------------------|
- -------------------------------|
- -------------------------------|


I know that the notes are octaves but it seems like the overtone in the former version is very noticeable in the recording of the song. What do you guys think?