#1
Hello!
I have to play this song in a school concert. It's in a minor. The chords are Am, F, C, G in verse and D, F, C, G in chorus. I can play some parts of the solo but can't really put it all together. My biggest problem is the lick that is at 2:05. Maybe someone could tab this because it doesn't sound like a difficult solo for an experienced player.
The solo starts at 1:54 min

THANKS!
#2
Here you go see if this helps you.


01:55
e|---------------|-UB----------UB--UB------------------|
B|---------------|-5~~~~~~~~-8-5---5------------br-----|
G|Pleck----------|-7~~~~~~~~---7---7--r-5-7~~~--7--7---|
D|-Scratch-------|-----------------------------------5-|
A|-----X~~~~~~~~-|-------------------------------------|
E|----X-~~~~~~~~-|-------------------------------------|


e|------------|--------------------------------|-----------------------|
B|------------|--------------------------------|-------------brp-----s-|
G|Pleck-------|--------------------------------|--s--5---5-7-7--5---5\-|
D|-Scratch----|---------------brp---------s--5-|-5\7---7----------7----|
A|-----X~~~~~-|---3---3---3-5-5--3---3-5-5\7---|-----------------------|
E|----X-~~~~~~|-5---5---5----------5-----------|-----------------------|
              hold 
  Slow     the bend
e|--b------b--b--b--b--br---------------------|--------------------|---------------|
B|-15~~~--15-15-15-15-15----------------b-----|--------------------|---------------|
G|------------------------12--14-12-14-14-----|----------s-----s---|-------s-s-----|
D|-----------------------------------------12-|-9--10--10\12-12\14-|-5~~~-5\7/5~~~-|
A|--------------------------------------------|--------------------|---------------|
E|--------------------------------------------|--------------------|---------------|


UB = Union Bend
b = Bend
rb = Reverse bend
s = Slide
brp = Reverse Bend Pulloff
Last edited by ayreon77 at Dec 2, 2016,