#1
Hi,

I tried to TAB out this small section that i saw on a video of Knocking on heavens door.



Its between 4.23 seconds untill 4.40.

Can someone please check this and see if ive tabbed it out correct or if im missing something ?

Eb|----------------------------------------------------------------------------------------------------------------
Bb|----------------------------------------------------------------------------------------------------------------
Gb|-----------5/4~ -----------4~ ------------------5-7p5-7p5--4-----------------------------------------
Db|---5-7-5-7--------7-5-7~ -------5~\ --/7------------------------5/7~ -5~/4~ -4h5p4-----------
Ab|-6---------------------------------------------------------------------------------------------------5/7~ --
Eb|---------------------------------------------------------------------------------------------------------------
#2
nicklaspetrel
You're not far off, there's a few little details missing,
Here it is, spaced out and with barlines.
               .
Eb|----------------|--------------------------|----------------------------|
Bb|----------------|--------------------------|----------------------r-----|
Gb|----------5-7-5\|4~ ---4-------------4~ 4~ |------------------5-7-e-7p5-|
Db|---/5-5-7-------|--------7-5-7~ -----------|5~ ----------\ /7-----s-----|
Ab|----------------|--------------------------|----------------------t-----|
Eb|----------------|--------------------------|----------------------------|

Eb|----------------------------------|------------------------|
Bb|----------------------------------|------------------------|
Gb|4---------------------------------|------------------------|
Db|--5/7~ ---5~ ---7p5\4~ ---4h5p4---|------------------------|
Ab|--------------------------------5/|7~ ------------------\ -|
Eb|----------------------------------|------------------------|
#3
Quote by NSpen1
nicklaspetrel
You're not far off, there's a few little details missing,
Here it is, spaced out and with barlines.
               .
Eb|----------------|--------------------------|----------------------------|
Bb|----------------|--------------------------|----------------------r-----|
Gb|----------5-7-5\|4~ ---4-------------4~ 4~ |------------------5-7-e-7p5-|
Db|---/5-5-7-------|--------7-5-7~ -----------|5~ ----------\ /7-----s-----|
Ab|----------------|--------------------------|----------------------t-----|
Eb|----------------|--------------------------|----------------------------|

Eb|----------------------------------|------------------------|
Bb|----------------------------------|------------------------|
Gb|4---------------------------------|------------------------|
Db|--5/7~ ---5~ ---7p5\4~ ---4h5p4---|------------------------|
Ab|--------------------------------5/|7~ ------------------\ -|
Eb|----------------------------------|------------------------|


Thanks alot NSpen1 !