#1
Hi! I've been looking for a ukelele tab of the song Glory by Bastille. There's this melody playing throughout the song which I think you can play on the uke but I can only figure out the first bit. Could someone help me?
#2
This assumes a capo, otherwise make the numbers 1 larger than they are and play that fret. This is the main thread in the intro; if you need more, that'll take more time.

Capo 1

A|-----------------|-----------------|-----------------|-----------------|
E|-------1---------|---------1-------|-------1---------|---------1-------|
C|-2-----------0---|---2-------------|-2-----------0---|---2-------------|
G|-----------------|-----------------|-----------------|-----------------|
   1 + 2 + 3 + 4 +   1 + 2 + 3 + 4 +   1 + 2 + 3 + 4 +   1 + 2 + 3 + 4 +

A|-----------------|-----------------|-----------------|-----------------|
E|-------1---------|---------1-------|-------------1---|---0-------------|
C|-2-----------0---|---2-------------|-0-----2---------|---------2---0---|
G|-----------------|-----------------|-----------------|-----------------|
   1 + 2 + 3 + 4 +   1 + 2 + 3 + 4 +   1 + 2 + 3 + 4 +   1 + 2 + 3 + 4 +