#1
I want to play the intro riff this guy plays in this video but I can't quite follow not sure what the notes mean when capo is 3rd fret and he's only plucking strings.



his reply to a comment (he gives the notes not sure how to play them):

"In that intro lead line? I gotchu! It's
G F G Bb G F Eb F (x3)
G F G Bb G Bb D Eb,
C Bb C Eb C Eb C Bb G Bb C Bb C Eb C Bb G Bb Ab G F Eb Bb C Eb F F# F Eb C Eb C B Bb …hope that helps LOL"
#2
ehh rough tab version- did it quick
e|---------6-----------------------------------------------------|
B|-8-6-8--8-6-------------------------------------------------|
G|---------------8-----------------------------------------------|
D|---------------------------------------------------------------| x3
A|---------------------------------------------------------------|
E|---------------------------------------------------------------|

e|---------6---6-10-11---------------------------------------------|
B|-8-6-8--8--------------------------------------------------|
G|--------------------------------------------------------------|
D|---------------------------------------------------------------|
A|---------------------------------------------------------------|
E|---------------------------------------------------------------|

e|-8-6-8-11-8-11-8-6--6-8-6-8-11-8-6---6-----------4------|
B|-------------------------8--------------------8---9-8-6-7---5-4-3|
G|---------------------------------------------------------------|
D|---------------------------------------------------------------|
A|---------------------------------------------------------------|
E|---------------------------------------------------------------|

someone correct the ending lol
"ba doo doo ba doo doo ba doo daa"
- earth,wind, and fire
#3
Try this.
The only bit which is not clear is where he has written F# (should be Gb), F - it doesn't sound like that to me, it sounds more like what I've put halfway through the 4th bar: F, C
P.S. forget the capo, it's irrelevant to this part.

#4
NSpen1 Thank you, so is this the entire part he does with the picking? And I just read it from the bottom EADGBe right? So the first line I repeat 3 times like him then go into the next partNSpen1
#5
Quote by hecks
ehh rough tab version- did it quick
e|---------6-----------------------------------------------------|
B|-8-6-8--8-6-------------------------------------------------|
G|---------------8-----------------------------------------------|
D|---------------------------------------------------------------| x3
A|---------------------------------------------------------------|
E|---------------------------------------------------------------|

e|---------6---6-10-11---------------------------------------------|
B|-8-6-8--8--------------------------------------------------|
G|--------------------------------------------------------------|
D|---------------------------------------------------------------|
A|---------------------------------------------------------------|
E|---------------------------------------------------------------|

e|-8-6-8-11-8-11-8-6--6-8-6-8-11-8-6---6-----------4------|
B|-------------------------8--------------------8---9-8-6-7---5-4-3|
G|---------------------------------------------------------------|
D|---------------------------------------------------------------|
A|---------------------------------------------------------------|
E|---------------------------------------------------------------|

someone correct the ending lol
No one has fixed it
#6
mrgr33n
Yeah, that's it exactly, it's the entire single note part, and yeah EADGBe from the bottom so most of it is played on the top two strings. First line fits twice into one bar at this slow tempo, so yes play 3 times, then move up, second line play twice in bar 3, etc, no problem!
#7
Quote by mrgr33n
No one has fixed it

You don't need it, it's in my tab, the bit in bar 4 from 9, 8 !
#8
Quote by NSpen1
You don't need it, it's in my tab, the bit in bar 4 from 9, 8 !


Thank you !