#1
Writing a song with Capo 2 and have the chorus down- progression is Cadd9 G/B Dsus G. I've written the verse but can't come up with a fitting chord progression that flows with the chorus. Any suggestions?
#3
yeah here

E|------------------------------|
B|------------------------------|
G|------0-------------------0---|
D|----0---0---------------0---0-|
A|------------------------------|
E|-3-------------------3--------|

  
E|--------------------------------------------------------|
B|------3-------------3-------------3-------------3-------|
G|----0---0---0-----0---0---0-----0---0---0-----2---2---2-|
D|----------0-------------0-------------2----0--------0---|
A|-----------------------------3--------------------------|
E|-3-------------3----------------------------------------| 


[Verse]

E|--------------------------------------------------------|
B|------3-------------3-------------3-------------3-------|
G|----0---0---0-----0---0---0-----0---0---0-----2---2---2-|
D|----------0-------------0-------------2----0--------0---|
A|-----------------------------3--------------------------|
E|-3-------------3----------------------------------------|


E|--------------------------------------------------------|
B|------3-------------3-------------3-------------3-------|
G|----0---0---0-----0---0---0-----0---0---0-----2---2---2-|
D|----------0-------------0-------------2----0--------0---|
A|-----------------------------3--------------------------|
E|-3-------------3----------------------------------------|
  
E|--------------------------------------------------------|
B|------0-------------3-------------3-------------3-------|
G|----0---0---0-----2---2---2-----0---0---0-----0---0---0-|
D|----------2----0--------0-------------2-------------0---|
A|-2---------------------------3--------------------------|
E|-------------------------------------------3------------|
 

E|--------------------------------------------------------|
B|------0-------------3-------------3-------------3-------|
G|----0---0---0-----2---2---2-----0---0---0-----0---0---0-|
D|----------2----0--------0-------------2-------------0---|
A|-2---------------------------3--------------------------|
E|-------------------------------------------3------------|
  


[Chorus]

E|--------------------------------------------------------|
B|------0-------------3-------------0-------------3-------|
G|----0---0---0-----0---0---0-----0---0---0-----0---0---0-|
D|----------2-------------0-------------2-------------0---|
A|-2---------------------------2--------------------------|
E|---------------3---------------------------3------------|
  

E|--------------------------------------------------------|
B|------0-------------3-------------3---------------------|
G|----0---0---0-----2---2---2-----0---0---0---------------|
D|----------2----0--------0-------------0-----------------|
A|-2------------------------------------------------------|
E|-----------------------------3--------------------------|


      G9    C9     D     G9    C9    D
E|----3------3-----2-----3-----3-----2----|
B|----3------3-----3-----3-----3-----3----|
G|----0------0-----2-----0-----0-----2----|
D|----0------2-----0-----0-----2-----0----|
A|----2------3-----x-----2-----3-----x----|
E|----3------x-----x-----3-----x-----x----|                     

     G9                      C9                    D     
E|----3-----------------------3--------------------2----|
B|----3-----------------------3--------------------3----|
G|----0-----------------------0--------------------2----|
D|----0-----------------------2--------------------0----|
A|----2-----------------------3--------------------x----|
E|----3-----------------------x--------------------x----|       
  

     G9                      C9                    D     
E|----3-----------------------3--------------------2----|
B|----3-----------------------3--------------------3----|
G|----0-----------------------0--------------------2----|
D|----0-----------------------2--------------------0----|
A|----2-----------------------3--------------------x----|
E|----3-----------------------x--------------------x----|
    

      Em        D             C          G9                       
E|----0---------2-------------0----------3-------|
B|----0---------3-------------1----------3-------|
G|----0---------2-------------0----------0-------|
D|----2---------0-------------2----------0-------|
A|----2---------x-------------3----------2-------|
E|----0---------x-------------x----------3-------|
    

      Em        D             C             G9                       
E|----0---------2-------------0-------------3-------|
B|----0---------3-------------1-------------3-------|
G|----0---------2-------------0-------------0-------|
D|----2---------0-------------2-------------0-------|
A|----2---------x-------------3-------------2-------|
E|----0---------x-------------x-------------3-------|
  
      Em           G9           Em           G9                      
E|----0------------3-------------0------------3-------|
B|----0------------3-------------0------------3-------|
G|----0------------0-------------0------------0-------|
D|----2------------0-------------2------------0-------|
A|----2------------2-------------2------------2-------|
E|----0------------3-------------0------------3-------|


      Em                D             G9   C9   D   G9    C9   D          
E|----0-----------------2-------------3----3----2----3----3----2---|
B|----0-----------------3-------------3----3----3----3----3----3---|
G|----0-----------------2-------------0----0----2----0----0----2---|
D|----2-----------------0-------------0----2----0----0----2----0---|
A|----2-----------------x-------------2----3----x----2----3----x---|
E|----0-----------------x-------------3----x----x----3----x----x---|
 


[Outro]

E|------------------------------------------------------3-|
B|------3------------3------------3------------3--------3-|
G|----0---0---0----0---0---0----0---0---0----2---2-2----0-|
D|----------0------------0------------2----0---------0--0-|
A|----------------------------3-------------------------2-|
E|-3-------------3--------------------------------------3-|