#1
Hi All

I am learning Nine Lives to play in our rockabilly band, I want to learn the shreddy end guitar solo which is actually only a few seconds long but there is no way I could ever figure it out with my limited ability, could someone help me out with this please?

Here is a link to the song, the solo is at approx 3min 40secs.

#3
bootcutboy
Well, here's the start of it, something like ...



P.S. just realised the note at the 2nd fret is better at the 7th fret on the string below.
#6
bootcutboy Here is what I have come up with for this


e|-------5---------------------------------------------|
b|-6-8-----8-6-5-----6-5-------------------------------|
g|---------------7-------7-5---5-----------------------|
d|---------------------------8----8-7-5---5------------|
a|--------------------------------------8---8-7-4/5--4-|
e|-----------------------------------------------------|

e|-------------------------------------------5-7-8-10-8-7------|
b|-------------------------------------5-7-8--------------9-10-|
g|-------------------4-5-7-5-4---4-5-7----------------------10-|
d|------------4-5-7------------7-------------------------------|
a|-----4-5--7--------------------------------------------------|
e|-5-7---------------------------------------------------------|


e|-------------------12///----------|
b|-10-10-10--10--10--10///------10\-|
g|-10-10-10--12--10--10///------10\-|
d|----------------------------------|
a|----------------------------------|
e|----------------------------------|

| /// Tremolo Pick
| / Slide Up
| \ Slide Down